  0
SECTION
  2
HEADER
  9
$ACADVER
  1
AC1015
  9
$ACADMAINTVER
 70
     6
  9
$DWGCODEPAGE
  3
ANSI_1254
  9
$INSBASE
 10
0.0
 20
0.0
 30
0.0
  9
$EXTMIN
 10
0.0
 20
0.0
 30
0.0
  9
$EXTMAX
 10
279.4
 20
215.9
 30
0.0
  9
$LIMMIN
 10
0.0
 20
0.0
  9
$LIMMAX
 10
279.4
 20
215.9
  9
$ORTHOMODE
 70
     0
  9
$REGENMODE
 70
     1
  9
$FILLMODE
 70
     1
  9
$QTEXTMODE
 70
     0
  9
$MIRRTEXT
 70
     1
  9
$LTSCALE
 40
1.0
  9
$ATTMODE
 70
     1
  9
$TEXTSIZE
 40
3.5
  9
$TRACEWID
 40
1.0
  9
$TEXTSTYLE
  7
Standard
  9
$CLAYER
  8
0
  9
$CELTYPE
  6
ByLayer
  9
$CECOLOR
 62
   256
  9
$CELTSCALE
 40
1.0
  9
$DISPSILH
 70
     0
  9
$DIMSCALE
 40
1.0
  9
$DIMASZ
 40
3.5
  9
$DIMEXO
 40
1.0
  9
$DIMDLI
 40
3.75
  9
$DIMRND
 40
0.0
  9
$DIMDLE
 40
0.0
  9
$DIMEXE
 40
1.0
  9
$DIMTP
 40
0.0
  9
$DIMTM
 40
0.0
  9
$DIMTXT
 40
3.5
  9
$DIMCEN
 40
2.5
  9
$DIMTSZ
 40
0.0
  9
$DIMTOL
 70
     0
  9
$DIMLIM
 70
     0
  9
$DIMTIH
 70
     1
  9
$DIMTOH
 70
     1
  9
$DIMSE1
 70
     0
  9
$DIMSE2
 70
     0
  9
$DIMTAD
 70
     1
  9
$DIMZIN
 70
     0
  9
$DIMBLK
  1

  9
$DIMASO
 70
     1
  9
$DIMSHO
 70
     1
  9
$DIMPOST
  1

  9
$DIMAPOST
  1

  9
$DIMALT
 70
     0
  9
$DIMALTD
 70
     3
  9
$DIMALTF
 40
0.0393700787
  9
$DIMLFAC
 40
1.0
  9
$DIMTOFL
 70
     1
  9
$DIMTVP
 40
0.0
  9
$DIMTIX
 70
     0
  9
$DIMSOXD
 70
     0
  9
$DIMSAH
 70
     0
  9
$DIMBLK1
  1

  9
$DIMBLK2
  1

  9
$DIMSTYLE
  2
ISO-25
  9
$DIMCLRD
 70
     0
  9
$DIMCLRE
 70
     0
  9
$DIMCLRT
 70
     0
  9
$DIMTFAC
 40
1.0
  9
$DIMGAP
 40
1.524
  9
$DIMJUST
 70
     0
  9
$DIMSD1
 70
     0
  9
$DIMSD2
 70
     0
  9
$DIMTOLJ
 70
     0
  9
$DIMTZIN
 70
     0
  9
$DIMALTZ
 70
     0
  9
$DIMALTTZ
 70
     0
  9
$DIMUPT
 70
     0
  9
$DIMDEC
 70
     2
  9
$DIMTDEC
 70
     2
  9
$DIMALTU
 70
     2
  9
$DIMALTTD
 70
     3
  9
$DIMTXSTY
  7
Standard
  9
$DIMAUNIT
 70
     0
  9
$DIMADEC
 70
     2
  9
$DIMALTRND
 40
0.0
  9
$DIMAZIN
 70
     0
  9
$DIMDSEP
 70
    44
  9
$DIMATFIT
 70
     3
  9
$DIMFRAC
 70
     0
  9
$DIMLDRBLK
  1

  9
$DIMLUNIT
 70
     2
  9
$DIMLWD
 70
    -2
  9
$DIMLWE
 70
    -2
  9
$DIMTMOVE
 70
     0
  9
$LUNITS
 70
     2
  9
$LUPREC
 70
     2
  9
$SKETCHINC
 40
1.0
  9
$FILLETRAD
 40
10.0
  9
$AUNITS
 70
     0
  9
$AUPREC
 70
     2
  9
$MENU
  1
.
  9
$ELEVATION
 40
0.0
  9
$PELEVATION
 40
0.0
  9
$THICKNESS
 40
0.0
  9
$LIMCHECK
 70
     0
  9
$CHAMFERA
 40
0.0
  9
$CHAMFERB
 40
0.0
  9
$CHAMFERC
 40
0.0
  9
$CHAMFERD
 40
0.0
  9
$SKPOLY
 70
     0
  9
$TDCREATE
 40
2460616.666892488
  9
$TDUCREATE
 40
2460616.541892488
  9
$TDUPDATE
 40
2460616.666892558
  9
$TDUUPDATE
 40
2460616.541892558
  9
$TDINDWG
 40
0.0000000116
  9
$TDUSRTIMER
 40
0.0000000116
  9
$USRTIMER
 70
     1
  9
$ANGBASE
 50
0.0
  9
$ANGDIR
 70
     0
  9
$PDMODE
 70
     0
  9
$PDSIZE
 40
-1.0
  9
$PLINEWID
 40
0.0
  9
$SPLFRAME
 70
     0
  9
$SPLINETYPE
 70
     6
  9
$SPLINESEGS
 70
     8
  9
$HANDSEED
  5
10F
  9
$SURFTAB1
 70
     6
  9
$SURFTAB2
 70
     6
  9
$SURFTYPE
 70
     6
  9
$SURFU
 70
     6
  9
$SURFV
 70
     6
  9
$UCSBASE
  2

  9
$UCSNAME
  2

  9
$UCSORG
 10
0.0
 20
0.0
 30
0.0
  9
$UCSXDIR
 10
1.0
 20
0.0
 30
0.0
  9
$UCSYDIR
 10
0.0
 20
1.0
 30
0.0
  9
$UCSORTHOREF
  2

  9
$UCSORTHOVIEW
 70
     0
  9
$UCSORGTOP
 10
0.0
 20
0.0
 30
0.0
  9
$UCSORGBOTTOM
 10
0.0
 20
0.0
 30
0.0
  9
$UCSORGLEFT
 10
0.0
 20
0.0
 30
0.0
  9
$UCSORGRIGHT
 10
0.0
 20
0.0
 30
0.0
  9
$UCSORGFRONT
 10
0.0
 20
0.0
 30
0.0
  9
$UCSORGBACK
 10
0.0
 20
0.0
 30
0.0
  9
$PUCSBASE
  2

  9
$PUCSNAME
  2

  9
$PUCSORG
 10
0.0
 20
0.0
 30
0.0
  9
$PUCSXDIR
 10
1.0
 20
0.0
 30
0.0
  9
$PUCSYDIR
 10
0.0
 20
1.0
 30
0.0
  9
$PUCSORTHOREF
  2

  9
$PUCSORTHOVIEW
 70
     0
  9
$PUCSORGTOP
 10
0.0
 20
0.0
 30
0.0
  9
$PUCSORGBOTTOM
 10
0.0
 20
0.0
 30
0.0
  9
$PUCSORGLEFT
 10
0.0
 20
0.0
 30
0.0
  9
$PUCSORGRIGHT
 10
0.0
 20
0.0
 30
0.0
  9
$PUCSORGFRONT
 10
0.0
 20
0.0
 30
0.0
  9
$PUCSORGBACK
 10
0.0
 20
0.0
 30
0.0
  9
$USERI1
 70
     0
  9
$USERI2
 70
     0
  9
$USERI3
 70
     0
  9
$USERI4
 70
     0
  9
$USERI5
 70
     0
  9
$USERR1
 40
0.0
  9
$USERR2
 40
0.0
  9
$USERR3
 40
0.0
  9
$USERR4
 40
0.0
  9
$USERR5
 40
0.0
  9
$WORLDVIEW
 70
     1
  9
$SHADEDGE
 70
     3
  9
$SHADEDIF
 70
    70
  9
$TILEMODE
 70
     1
  9
$MAXACTVP
 70
    64
  9
$PINSBASE
 10
0.0
 20
0.0
 30
0.0
  9
$PLIMCHECK
 70
     0
  9
$PEXTMIN
 10
1.0000000000E+20
 20
1.0000000000E+20
 30
1.0000000000E+20
  9
$PEXTMAX
 10
-1.0000000000E+20
 20
-1.0000000000E+20
 30
-1.0000000000E+20
  9
$PLIMMIN
 10
0.0
 20
0.0
  9
$PLIMMAX
 10
420.0
 20
297.0
  9
$UNITMODE
 70
     0
  9
$VISRETAIN
 70
     1
  9
$PLINEGEN
 70
     0
  9
$PSLTSCALE
 70
     1
  9
$TREEDEPTH
 70
  3020
  9
$CMLSTYLE
  2
Standard
  9
$CMLJUST
 70
     0
  9
$CMLSCALE
 40
20.0
  9
$PROXYGRAPHICS
 70
     1
  9
$MEASUREMENT
 70
     1
  9
$CELWEIGHT
370
    -1
  9
$ENDCAPS
280
     0
  9
$JOINSTYLE
280
     0
  9
$LWDISPLAY
290
     1
  9
$INSUNITS
 70
     4
  9
$HYPERLINKBASE
  1

  9
$STYLESHEET
  1

  9
$XEDIT
290
     1
  9
$CEPSNTYPE
380
     0
  9
$PSTYLEMODE
290
     1
  9
$FINGERPRINTGUID
  2
{1a3b973b-b1d8-4083-b5ec-ab0fd2186ae1}
  9
$VERSIONGUID
  2
{FAEB1C32-E019-11D5-929B-00C0DF256EC4}
  9
$EXTNAMES
290
     1
  9
$PSVPSCALE
 40
0.0
  9
$OLESTARTUP
290
     0
  0
ENDSEC
  0
SECTION
  2
CLASSES
  0
CLASS
  1
ACDBDICTIONARYWDFLT
  2
AcDbDictionaryWithDefault
  3
ObjectDBX Classes
 90
        0
280
     0
281
     0
  0
CLASS
  1
VISUALSTYLE
  2
AcDbVisualStyle
  3
ObjectDBX Classes
 90
     4095
280
     0
281
     0
  0
CLASS
  1
MATERIAL
  2
AcDbMaterial
  3
ObjectDBX Classes
 90
     1153
280
     0
281
     0
  0
CLASS
  1
SCALE
  2
AcDbScale
  3
ObjectDBX Classes
 90
     1153
280
     0
281
     0
  0
CLASS
  1
TABLESTYLE
  2
AcDbTableStyle
  3
ObjectDBX Classes
 90
     4095
280
     0
281
     0
  0
CLASS
  1
MLEADERSTYLE
  2
AcDbMLeaderStyle
  3
ACDB_MLEADERSTYLE_CLASS
 90
     4095
280
     0
281
     0
  0
CLASS
  1
SUN
  2
AcDbSun
  3
SCENEOE
 90
     1153
280
     0
281
     0
  0
CLASS
  1
ACDBPLACEHOLDER
  2
AcDbPlaceHolder
  3
ObjectDBX Classes
 90
        0
280
     0
281
     0
  0
CLASS
  1
LAYOUT
  2
AcDbLayout
  3
ObjectDBX Classes
 90
        0
280
     0
281
     0
  0
ENDSEC
  0
SECTION
  2
TABLES
  0
TABLE
  2
VPORT
  5
8
330
0
100
AcDbSymbolTable
 70
     1
  0
VPORT
  5
29
330
8
100
AcDbSymbolTableRecord
100
AcDbViewportTableRecord
  2
*Active
 70
     0
 10
0.0
 20
0.0
 11
1.0
 21
1.0
 12
139.7
 22
107.95
 13
0.0
 23
0.0
 14
10.0
 24
10.0
 15
10.0
 25
10.0
 16
0.0
 26
0.0
 36
1.0
 17
0.0
 27
0.0
 37
0.0
 40
215.9
 41
1.2941176471
 42
50.0
 43
0.0
 44
0.0
 50
0.0
 51
0.0
 71
     0
 72
  2000
 73
     1
 74
     3
 75
     0
 76
     0
 77
     0
 78
     0
281
     0
 65
     1
110
0.0
120
0.0
130
0.0
111
1.0
121
0.0
131
0.0
112
0.0
122
1.0
132
0.0
 79
     0
146
0.0
  0
ENDTAB
  0
TABLE
  2
LTYPE
  5
5
330
0
100
AcDbSymbolTable
 70
     6
  0
LTYPE
  5
14
330
5
100
AcDbSymbolTableRecord
100
AcDbLinetypeTableRecord
  2
ByBlock
 70
     0
  3

 72
    65
 73
     0
 40
0.0
  0
LTYPE
  5
15
330
5
100
AcDbSymbolTableRecord
100
AcDbLinetypeTableRecord
  2
ByLayer
 70
     0
  3

 72
    65
 73
     0
 40
0.0
  0
LTYPE
  5
16
330
5
100
AcDbSymbolTableRecord
100
AcDbLinetypeTableRecord
  2
Continuous
 70
     0
  3
Solid line
 72
    65
 73
     0
 40
0.0
  0
LTYPE
  5
6E
330
5
100
AcDbSymbolTableRecord
100
AcDbLinetypeTableRecord
  2
HIDDEN
 70
     0
  3
Hidden __ __ __ __ __ __ __ __ __ __ __ __ __ __
 72
    65
 73
     2
 40
1.905
 49
1.27
 74
     0
 49
-0.635
 74
     0
  0
LTYPE
  5
6F
330
5
100
AcDbSymbolTableRecord
100
AcDbLinetypeTableRecord
  2
PHANTOM
 70
     0
  3
Phantom ______  __  __  ______  __  __  ______
 72
    65
 73
     6
 40
12.7
 49
6.35
 74
     0
 49
-1.27
 74
     0
 49
1.27
 74
     0
 49
-1.27
 74
     0
 49
1.27
 74
     0
 49
-1.27
 74
     0
  0
LTYPE
  5
70
330
5
100
AcDbSymbolTableRecord
100
AcDbLinetypeTableRecord
  2
CENTER
 70
     0
  3
Center ____ _ ____ _ ____ _ ____ _ ____ _ ____
 72
    65
 73
     4
 40
10.16
 49
6.35
 74
     0
 49
-1.27
 74
     0
 49
1.27
 74
     0
 49
-1.27
 74
     0
  0
LTYPE
  5
71
330
5
100
AcDbSymbolTableRecord
100
AcDbLinetypeTableRecord
  2
CENTERX2
 70
     0
  3
Center (2x) ________  __  ________  __  _____
 72
    65
 73
     4
 40
20.32
 49
12.7
 74
     0
 49
-2.54
 74
     0
 49
2.54
 74
     0
 49
-2.54
 74
     0
  0
LTYPE
  5
72
330
5
100
AcDbSymbolTableRecord
100
AcDbLinetypeTableRecord
  2
DOT2
 70
     0
  3
Dot (.5x) ........................................
 72
    65
 73
     2
 40
0.635
 49
0.0
 74
     0
 49
-0.635
 74
     0
  0
ENDTAB
  0
TABLE
  2
LAYER
  5
2
330
0
100
AcDbSymbolTable
 70
    17
  0
LAYER
  5
10
330
2
100
AcDbSymbolTableRecord
100
AcDbLayerTableRecord
  2
0
 70
     0
 62
     7
  6
Continuous
370
    -3
390
F
  0
LAYER
  5
73
330
2
100
AcDbSymbolTableRecord
100
AcDbLayerTableRecord
  2
FORMAT
 70
     0
 62
     7
  6
Continuous
370
    -3
390
F
  0
LAYER
  5
74
330
2
100
AcDbSymbolTableRecord
100
AcDbLayerTableRecord
  2
YARDIMCI_GEOMETRI
 70
     0
 62
    -6
  6
Continuous
290
     0
370
    -3
390
F
  0
LAYER
  5
75
330
2
100
AcDbSymbolTableRecord
100
AcDbLayerTableRecord
  2
SAYFA_CERCEVESI
 70
     0
 62
     7
  6
Continuous
370
    25
390
F
  0
LAYER
  5
76
330
2
100
AcDbSymbolTableRecord
100
AcDbLayerTableRecord
  2
ANTET
 70
     0
 62
     7
  6
Continuous
370
    -3
390
F
  0
LAYER
  5
77
330
2
100
AcDbSymbolTableRecord
100
AcDbLayerTableRecord
  2
OLCU
 70
     0
 62
   150
  6
Continuous
370
    -3
390
F
  0
LAYER
  5
78
330
2
100
AcDbSymbolTableRecord
100
AcDbLayerTableRecord
  2
METIN
 70
     0
 62
    96
  6
Continuous
370
    -3
390
F
  0
LAYER
  5
79
330
2
100
AcDbSymbolTableRecord
100
AcDbLayerTableRecord
  2
BALON
 70
     0
 62
     5
  6
Continuous
370
    -3
390
F
  0
LAYER
  5
7A
330
2
100
AcDbSymbolTableRecord
100
AcDbLayerTableRecord
  2
VURGU
 70
     0
 62
     7
  6
Continuous
370
    -3
390
F
  0
LAYER
  5
7B
330
2
100
AcDbSymbolTableRecord
100
AcDbLayerTableRecord
  2
SILIK
 70
     0
 62
     7
  6
Continuous
370
    -3
390
F
  0
LAYER
  5
7C
330
2
100
AcDbSymbolTableRecord
100
AcDbLayerTableRecord
  2
MODEL
 70
     0
 62
     7
  6
Continuous
370
    -3
390
F
  0
LAYER
  5
7D
330
2
100
AcDbSymbolTableRecord
100
AcDbLayerTableRecord
  2
DETAYLANDıRMA
 70
     0
 62
   190
  6
Continuous
370
    -3
390
F
  0
LAYER
  5
7E
330
2
100
AcDbSymbolTableRecord
100
AcDbLayerTableRecord
  2
TOLERANS
 70
     0
 62
   230
  6
Continuous
370
    -3
390
F
  0
LAYER
  5
7F
330
2
100
AcDbSymbolTableRecord
100
AcDbLayerTableRecord
  2
MERKEZ_CIZGILERI
 70
     0
 62
    30
  6
Continuous
370
    -3
390
F
  0
LAYER
  5
80
330
2
100
AcDbSymbolTableRecord
100
AcDbLayerTableRecord
  2
KESIT-DETAY_CIZGILERI
 70
     0
 62
     7
  6
Continuous
370
    -3
390
F
  0
LAYER
  5
81
330
2
100
AcDbSymbolTableRecord
100
AcDbLayerTableRecord
  2
\U+041E\U+0421\U+0415\U+0412\U+042B\U+0415
 70
     0
 62
     7
  6
Continuous
370
    -3
390
F
  0
LAYER
  5
82
330
2
100
AcDbSymbolTableRecord
100
AcDbLayerTableRecord
  2
\U+0412\U+041E\U+0414\U+042F\U+041D\U+042B\U+0415_\U+0417\U+041D\U+0410\U+041A\U+0418
 70
     0
 62
    11
  6
Continuous
370
    -3
390
F
  0
ENDTAB
  0
TABLE
  2
STYLE
  5
3
330
0
100
AcDbSymbolTable
 70
     1
  0
STYLE
  5
11
330
3
100
AcDbSymbolTableRecord
100
AcDbTextStyleTableRecord
  2
Standard
 70
     0
 40
0.0
 41
1.0
 50
0.0
 71
     0
 42
3.5
  3
txt
  4

  0
ENDTAB
  0
TABLE
  2
VIEW
  5
6
330
0
100
AcDbSymbolTable
 70
     0
  0
ENDTAB
  0
TABLE
  2
UCS
  5
7
330
0
100
AcDbSymbolTable
 70
     0
  0
ENDTAB
  0
TABLE
  2
APPID
  5
9
330
0
100
AcDbSymbolTable
 70
     1
  0
APPID
  5
12
330
9
100
AcDbSymbolTableRecord
100
AcDbRegAppTableRecord
  2
ACAD
 70
     0
  0
ENDTAB
  0
TABLE
  2
DIMSTYLE
  5
A
330
0
100
AcDbSymbolTable
 70
     1
100
AcDbDimStyleTable
  0
DIMSTYLE
105
27
330
A
100
AcDbSymbolTableRecord
100
AcDbDimStyleTableRecord
  2
ISO-25
 70
     0
 41
2.5
 42
0.625
 43
3.75
 44
1.25
 73
     0
 74
     0
 77
     1
 78
     8
140
2.5
141
2.5
143
0.0393700787
147
0.625
171
     3
172
     1
178
     0
271
     2
272
     2
274
     3
278
    44
283
     0
284
     8
340
11
  0
ENDTAB
  0
TABLE
  2
BLOCK_RECORD
  5
1
330
0
100
AcDbSymbolTable
 70
     4
  0
BLOCK_RECORD
  5
1F
330
1
100
AcDbSymbolTableRecord
100
AcDbBlockTableRecord
  2
*Model_Space
340
22
  0
BLOCK_RECORD
  5
1B
330
1
100
AcDbSymbolTableRecord
100
AcDbBlockTableRecord
  2
*Paper_Space
340
1E
  0
BLOCK_RECORD
  5
23
330
1
100
AcDbSymbolTableRecord
100
AcDbBlockTableRecord
  2
*Paper_Space0
340
26
  0
BLOCK_RECORD
  5
8C
330
1
100
AcDbSymbolTableRecord
100
AcDbBlockTableRecord
  2
SW_CENTERMARKSYMBOL_0
340
0
102
{BLKREFS
331
97
102
}
  0
BLOCK_RECORD
  5
DE
330
1
100
AcDbSymbolTableRecord
100
AcDbBlockTableRecord
  2
SW_CENTERMARKSYMBOL_1
340
0
102
{BLKREFS
331
E9
102
}
  0
BLOCK_RECORD
  5
EA
330
1
100
AcDbSymbolTableRecord
100
AcDbBlockTableRecord
  2
SW_CENTERMARKSYMBOL_2
340
0
102
{BLKREFS
331
F5
102
}
  0
ENDTAB
  0
ENDSEC
  0
SECTION
  2
BLOCKS
  0
BLOCK
  5
20
330
1F
100
AcDbEntity
  8
0
100
AcDbBlockBegin
  2
*Model_Space
 70
     0
 10
0.0
 20
0.0
 30
0.0
  3
*Model_Space
  1

  0
ENDBLK
  5
21
330
1F
100
AcDbEntity
  8
0
100
AcDbBlockEnd
  0
BLOCK
  5
1C
330
1B
100
AcDbEntity
 67
     1
  8
0
100
AcDbBlockBegin
  2
*Paper_Space
 70
     0
 10
0.0
 20
0.0
 30
0.0
  3
*Paper_Space
  1

  0
ENDBLK
  5
1D
330
1B
100
AcDbEntity
 67
     1
  8
0
100
AcDbBlockEnd
  0
BLOCK
  5
24
330
23
100
AcDbEntity
  8
0
100
AcDbBlockBegin
  2
*Paper_Space0
 70
     0
 10
0.0
 20
0.0
 30
0.0
  3
*Paper_Space0
  1

  0
ENDBLK
  5
25
330
23
100
AcDbEntity
  8
0
100
AcDbBlockEnd
  0
BLOCK
  5
8D
330
8C
100
AcDbEntity
  8
0
100
AcDbBlockBegin
  2
SW_CENTERMARKSYMBOL_0
 70
     0
 10
0.0
 20
0.0
 30
0.0
  3
SW_CENTERMARKSYMBOL_0
  1

  0
LINE
  5
8F
330
8C
100
AcDbEntity
  8
FORMAT
 62
     0
100
AcDbLine
 10
0.0
 20
0.0
 30
0.0
 11
0.0
 21
2.5
 31
0.0
  0
LINE
  5
90
330
8C
100
AcDbEntity
  8
FORMAT
 62
     0
100
AcDbLine
 10
0.0
 20
0.0
 30
0.0
 11
-2.5
 21
0.0
 31
0.0
  0
LINE
  5
91
330
8C
100
AcDbEntity
  8
FORMAT
 62
     0
100
AcDbLine
 10
0.0
 20
0.0
 30
0.0
 11
0.0
 21
-2.5
 31
0.0
  0
LINE
  5
92
330
8C
100
AcDbEntity
  8
FORMAT
 62
     0
100
AcDbLine
 10
0.0
 20
0.0
 30
0.0
 11
2.5
 21
0.0
 31
0.0
  0
LINE
  5
93
330
8C
100
AcDbEntity
  8
FORMAT
 62
     0
100
AcDbLine
 10
0.0
 20
5.0
 30
0.0
 11
0.0
 21
115.7
 31
0.0
  0
LINE
  5
94
330
8C
100
AcDbEntity
  8
FORMAT
 62
     0
100
AcDbLine
 10
-5.0
 20
0.0
 30
0.0
 11
-115.7
 21
0.0
 31
0.0
  0
LINE
  5
95
330
8C
100
AcDbEntity
  8
FORMAT
 62
     0
100
AcDbLine
 10
0.0
 20
-5.0
 30
0.0
 11
0.0
 21
-115.7
 31
0.0
  0
LINE
  5
96
330
8C
100
AcDbEntity
  8
FORMAT
 62
     0
100
AcDbLine
 10
5.0
 20
0.0
 30
0.0
 11
115.7
 21
0.0
 31
0.0
  0
ENDBLK
  5
8E
330
8C
100
AcDbEntity
  8
0
100
AcDbBlockEnd
  0
BLOCK
  5
DF
330
DE
100
AcDbEntity
  8
0
100
AcDbBlockBegin
  2
SW_CENTERMARKSYMBOL_1
 70
     0
 10
0.0
 20
0.0
 30
0.0
  3
SW_CENTERMARKSYMBOL_1
  1

  0
LINE
  5
E1
330
DE
100
AcDbEntity
  8
FORMAT
 62
     0
100
AcDbLine
 10
0.0
 20
0.0
 30
0.0
 11
0.0
 21
2.5
 31
0.0
  0
LINE
  5
E2
330
DE
100
AcDbEntity
  8
FORMAT
 62
     0
100
AcDbLine
 10
0.0
 20
0.0
 30
0.0
 11
-2.5
 21
0.0
 31
0.0
  0
LINE
  5
E3
330
DE
100
AcDbEntity
  8
FORMAT
 62
     0
100
AcDbLine
 10
0.0
 20
0.0
 30
0.0
 11
0.0
 21
-2.5
 31
0.0
  0
LINE
  5
E4
330
DE
100
AcDbEntity
  8
FORMAT
 62
     0
100
AcDbLine
 10
0.0
 20
0.0
 30
0.0
 11
2.5
 21
0.0
 31
0.0
  0
LINE
  5
E5
330
DE
100
AcDbEntity
  8
FORMAT
 62
     0
100
AcDbLine
 10
0.0
 20
5.0
 30
0.0
 11
0.0
 21
9.5
 31
0.0
  0
LINE
  5
E6
330
DE
100
AcDbEntity
  8
FORMAT
 62
     0
100
AcDbLine
 10
-5.0
 20
0.0
 30
0.0
 11
-9.5
 21
0.0
 31
0.0
  0
LINE
  5
E7
330
DE
100
AcDbEntity
  8
FORMAT
 62
     0
100
AcDbLine
 10
0.0
 20
-5.0
 30
0.0
 11
0.0
 21
-9.5
 31
0.0
  0
LINE
  5
E8
330
DE
100
AcDbEntity
  8
FORMAT
 62
     0
100
AcDbLine
 10
5.0
 20
0.0
 30
0.0
 11
9.5
 21
0.0
 31
0.0
  0
ENDBLK
  5
E0
330
DE
100
AcDbEntity
  8
0
100
AcDbBlockEnd
  0
BLOCK
  5
EB
330
EA
100
AcDbEntity
  8
0
100
AcDbBlockBegin
  2
SW_CENTERMARKSYMBOL_2
 70
     0
 10
0.0
 20
0.0
 30
0.0
  3
SW_CENTERMARKSYMBOL_2
  1

  0
LINE
  5
ED
330
EA
100
AcDbEntity
  8
FORMAT
 62
     0
100
AcDbLine
 10
0.0
 20
0.0
 30
0.0
 11
0.0
 21
2.5
 31
0.0
  0
LINE
  5
EE
330
EA
100
AcDbEntity
  8
FORMAT
 62
     0
100
AcDbLine
 10
0.0
 20
0.0
 30
0.0
 11
-2.5
 21
0.0
 31
0.0
  0
LINE
  5
EF
330
EA
100
AcDbEntity
  8
FORMAT
 62
     0
100
AcDbLine
 10
0.0
 20
0.0
 30
0.0
 11
0.0
 21
-2.5
 31
0.0
  0
LINE
  5
F0
330
EA
100
AcDbEntity
  8
FORMAT
 62
     0
100
AcDbLine
 10
0.0
 20
0.0
 30
0.0
 11
2.5
 21
0.0
 31
0.0
  0
LINE
  5
F1
330
EA
100
AcDbEntity
  8
FORMAT
 62
     0
100
AcDbLine
 10
0.0
 20
5.0
 30
0.0
 11
0.0
 21
9.5
 31
0.0
  0
LINE
  5
F2
330
EA
100
AcDbEntity
  8
FORMAT
 62
     0
100
AcDbLine
 10
-5.0
 20
0.0
 30
0.0
 11
-9.5
 21
0.0
 31
0.0
  0
LINE
  5
F3
330
EA
100
AcDbEntity
  8
FORMAT
 62
     0
100
AcDbLine
 10
0.0
 20
-5.0
 30
0.0
 11
0.0
 21
-9.5
 31
0.0
  0
LINE
  5
F4
330
EA
100
AcDbEntity
  8
FORMAT
 62
     0
100
AcDbLine
 10
5.0
 20
0.0
 30
0.0
 11
9.5
 21
0.0
 31
0.0
  0
ENDBLK
  5
EC
330
EA
100
AcDbEntity
  8
0
100
AcDbBlockEnd
  0
ENDSEC
  0
SECTION
  2
ENTITIES
  0
LINE
  5
83
330
1F
100
AcDbEntity
  8
0
  6
Continuous
 62
     7
370
    25
100
AcDbLine
 10
144.4637874962
 20
224.4492820797
 30
0.0
 11
144.4637874962
 21
238.9649519231
 31
0.0
  0
LINE
  5
84
330
1F
100
AcDbEntity
  8
0
  6
Continuous
 62
     7
370
    25
100
AcDbLine
 10
130.4637874962
 20
238.9649519231
 30
0.0
 11
130.4637874962
 21
224.4448971627
 31
0.0
  0
CIRCLE
  5
85
330
1F
100
AcDbEntity
  8
0
  6
Continuous
 62
     7
370
    25
100
AcDbCircle
 10
137.4637874962
 20
95.8949519231
 30
0.0
 40
128.5
  0
ARC
  5
86
330
1F
100
AcDbEntity
  8
0
  6
Continuous
 62
     7
370
    25
100
AcDbCircle
 10
137.4637874962
 20
95.8949519231
 30
0.0
 40
129.5000000000002
100
AcDbArc
 50
93.0985793398
 51
180.0
  0
ARC
  5
87
330
1F
100
AcDbEntity
  8
0
  6
Continuous
 62
     7
370
    25
100
AcDbCircle
 10
137.4637874962
 20
95.8949519231
 30
0.0
 40
129.5000000000002
100
AcDbArc
 50
180.0
 51
86.9014206602
  0
SPLINE
  5
88
330
1F
100
AcDbEntity
  8
0
  6
Continuous
 62
     7
370
    25
100
AcDbSpline
210
0.0
220
0.0
230
1.0
 70
     8
 71
     3
 72
    14
 73
    10
 74
     0
 42
0.00000001
 43
0.00000001
 40
0.0
 40
0.0
 40
0.0
 40
0.0
 40
0.1430446128582918
 40
0.2860906965722509
 40
0.4290870509161244
 40
0.5720418015369302
 40
0.7150623056028605
 40
0.8581154316075675
 40
1.0
 40
1.0
 40
1.0
 40
1.0
 10
142.42515482207
 20
224.4446120550568
 30
0.0
 10
141.8150504844113
 20
224.4560169574192
 30
0.0
 10
140.5948355356985
 20
224.4788268794149
 30
0.0
 10
138.2614601760649
 20
224.5022696686261
 30
0.0
 10
135.8798108442132
 20
224.4973062089747
 30
0.0
 10
133.6621333902996
 20
224.4675776929083
 30
0.0
 10
131.8908337340308
 20
224.4324113136448
 30
0.0
 10
130.6920588688431
 20
224.4132904069102
 30
0.0
 10
130.5416056678625
 20
224.4343904218735
 30
0.0
 10
130.4666875790868
 20
224.444897162733
 30
0.0
  0
SPLINE
  5
89
330
1F
100
AcDbEntity
  8
0
  6
Continuous
 62
     7
370
    25
100
AcDbSpline
210
0.0
220
0.0
230
1.0
 70
     8
 71
     3
 72
    10
 73
     6
 74
     0
 42
0.00000001
 43
0.00000001
 40
0.0
 40
0.0
 40
0.0
 40
0.0
 40
0.2971604067174403
 40
0.7270165186370177
 40
1.0
 40
1.0
 40
1.0
 40
1.0
 10
144.3788946854605
 20
224.449282079714
 30
0.0
 10
144.3752622307678
 20
224.4393059132031
 30
0.0
 10
144.3663752643177
 20
224.4148987658102
 30
0.0
 10
143.5898101272715
 20
224.4231605126062
 30
0.0
 10
142.7509635347992
 20
224.4386110525278
 30
0.0
 10
142.42515482207
 20
224.4446120550568
 30
0.0
  0
CIRCLE
  5
8A
330
1F
100
AcDbEntity
  8
0
  6
Continuous
 62
     7
370
    25
100
AcDbCircle
 10
137.4637874962
 20
95.8949519231
 30
0.0
 40
113.2
  0
LINE
  5
8B
330
1F
100
AcDbEntity
  8
0
  6
Continuous
 62
     7
370
    25
100
AcDbLine
 10
144.4637874962
 20
238.9649519231
 30
0.0
 11
130.4637874962
 21
238.9649519231
 31
0.0
  0
INSERT
  5
97
330
1F
100
AcDbEntity
  8
FORMAT
 62
     7
100
AcDbBlockReference
  2
SW_CENTERMARKSYMBOL_0
 10
137.4637874962
 20
95.8949519231
 30
0.0
  0
ARC
  5
98
330
1F
100
AcDbEntity
  8
0
  6
Continuous
 62
     7
370
    25
100
AcDbCircle
 10
501.7896834411
 20
-4146.2300480769
 30
0.0
 40
4371.625000000019
100
AcDbArc
 50
91.1588320869
 51
91.2255314445
  0
ARC
  5
99
330
1F
100
AcDbEntity
  8
0
  6
Continuous
 62
     7
370
    25
100
AcDbCircle
 10
501.7896834411
 20
-4146.2300480769
 30
0.0
 40
4371.62500000002
100
AcDbArc
 50
90.0
 51
90.9776532007
  0
ARC
  5
9A
330
1F
100
AcDbEntity
  8
0
  6
Continuous
 62
     7
370
    25
100
AcDbCircle
 10
501.7896834411
 20
4338.0199519231
 30
0.0
 40
4371.62500000002
100
AcDbArc
 50
268.7744685555
 51
270.0
  0
LINE
  5
9B
330
1F
100
AcDbEntity
  8
0
  6
Continuous
 62
     7
370
    25
100
AcDbLine
 10
501.7896834411
 20
-33.6050480769
 30
0.0
 11
526.7896834411
 21
-33.6050480769
 31
0.0
  0
LINE
  5
9C
330
1F
100
AcDbEntity
  8
0
  6
Continuous
 62
     7
370
    25
100
AcDbLine
 10
526.7896834411
 20
225.3949519231
 30
0.0
 11
501.7896834411
 21
225.3949519231
 31
0.0
  0
ARC
  5
9D
330
1F
100
AcDbEntity
  8
0
  6
Continuous
 62
     7
370
    25
100
AcDbCircle
 10
526.7896834411
 20
-4146.2300480769
 30
0.0
 40
4371.62500000002
100
AcDbArc
 50
89.0223505608
 51
90.0
  0
ARC
  5
9E
330
1F
100
AcDbEntity
  8
0
  6
Continuous
 62
     7
370
    25
100
AcDbCircle
 10
526.7896834411
 20
-4146.2300480769
 30
0.0
 40
4371.62500000002
100
AcDbArc
 50
88.7744685555
 51
88.8411759156
  0
ARC
  5
9F
330
1F
100
AcDbEntity
  8
0
  6
Continuous
 62
     7
370
    25
100
AcDbCircle
 10
526.7896834411
 20
4338.0199519231
 30
0.0
 40
4371.62500000002
100
AcDbArc
 50
270.0
 51
271.2255314445
  0
LINE
  5
A0
330
1F
100
AcDbEntity
  8
0
  6
Continuous
 62
     7
370
    25
100
AcDbLine
 10
427.2896834411
 20
224.7537079464
 30
0.0
 11
427.2896834411
 21
238.9649519231
 31
0.0
  0
LINE
  5
A1
330
1F
100
AcDbEntity
  8
0
  6
Continuous
 62
     7
370
    25
100
AcDbLine
 10
413.2896834411
 20
238.9649519231
 30
0.0
 11
413.2896834411
 21
224.4961001394
 31
0.0
  0
LINE
  5
A2
330
1F
100
AcDbEntity
  8
0
  6
Continuous
 62
     7
370
    25
100
AcDbLine
 10
615.2896834411
 20
224.4960791703
 30
0.0
 11
615.2896834411
 21
238.9649519231
 31
0.0
  0
LINE
  5
A3
330
1F
100
AcDbEntity
  8
0
  6
Continuous
 62
     7
370
    25
100
AcDbLine
 10
601.2896834411
 20
238.9649519231
 30
0.0
 11
601.2896834411
 21
224.7537143244
 31
0.0
  0
LINE
  5
A4
330
1F
100
AcDbEntity
  8
0
  6
Continuous
 62
     7
370
    25
100
AcDbLine
 10
408.2896834411
 20
95.8949519231
 30
0.0
 11
408.2896834411
 21
224.3949519231
 31
0.0
  0
LINE
  5
A5
330
1F
100
AcDbEntity
  8
0
  6
Continuous
 62
     7
370
    25
100
AcDbLine
 10
408.2896834411
 20
-32.6050480769
 30
0.0
 11
408.2896834411
 21
95.8949519231
 31
0.0
  0
SPLINE
  5
A6
330
1F
100
AcDbEntity
  8
0
  6
Continuous
 62
     7
370
    25
100
AcDbSpline
210
0.0
220
0.0
230
1.0
 70
     8
 71
     3
 72
    17
 73
    13
 74
     0
 42
0.00000001
 43
0.00000001
 40
0.0
 40
0.0
 40
0.0
 40
0.0
 40
0.069408044685884
 40
0.1765406629856805
 40
0.283836796996673
 40
0.3913561041277103
 40
0.4988897821936272
 40
0.6062545100273014
 40
0.7135135912733347
 40
0.8208342230604865
 40
0.9282403178851193
 40
1.0
 40
1.0
 40
1.0
 40
1.0
 10
427.1992632386599
 20
224.753691472748
 30
0.0
 10
427.2025179808499
 20
224.7538929537477
 30
0.0
 10
427.2107964786332
 20
224.7544054244479
 30
0.0
 10
426.3320252141054
 20
224.6931653842698
 30
0.0
 10
424.7741897198055
 20
224.6000901204424
 30
0.0
 10
422.6779129758889
 20
224.5043490342812
 30
0.0
 10
420.3184949246333
 20
224.4380248803611
 30
0.0
 10
417.9569276813415
 20
224.4151836355965
 30
0.0
 10
415.852190690385
 20
224.4319190856108
 30
0.0
 10
414.276901764626
 20
224.4668782417403
 30
0.0
 10
413.3771918481338
 20
224.4959866908748
 30
0.0
 10
413.3775608098101
 20
224.4960606177153
 30
0.0
 10
413.3777085867632
 20
224.4960902269781
 30
0.0
  0
LINE
  5
A7
330
1F
100
AcDbEntity
  8
0
  6
Continuous
 62
     7
370
    25
100
AcDbLine
 10
620.2896834411
 20
95.8949519231
 30
0.0
 11
620.2896834411
 21
224.3949519231
 31
0.0
  0
LINE
  5
A8
330
1F
100
AcDbEntity
  8
0
  6
Continuous
 62
     7
370
    25
100
AcDbLine
 10
620.2896834411
 20
-32.6050480769
 30
0.0
 11
620.2896834411
 21
95.8949519231
 31
0.0
  0
SPLINE
  5
A9
330
1F
100
AcDbEntity
  8
0
  6
Continuous
 62
     7
370
    25
100
AcDbSpline
210
0.0
220
0.0
230
1.0
 70
     8
 71
     3
 72
    17
 73
    13
 74
     0
 42
0.00000001
 43
0.00000001
 40
0.0
 40
0.0
 40
0.0
 40
0.0
 40
0.0712291776258241
 40
0.1785651943577556
 40
0.2859505813474465
 40
0.393360462164388
 40
0.5006885260126674
 40
0.6079483831953318
 40
0.7153047147176348
 40
0.8228334282099886
 40
0.9303627840337235
 40
1.0
 40
1.0
 40
1.0
 40
1.0
 10
615.2010549387317
 20
224.4960692641218
 30
0.0
 10
615.2019184778145
 20
224.4960649722047
 30
0.0
 10
615.2040832932637
 20
224.4960542127514
 30
0.0
 10
614.3088741125584
 20
224.4670627607171
 30
0.0
 10
612.7362489558301
 20
224.4320579476271
 30
0.0
 10
610.6318431934098
 20
224.4151715567776
 30
0.0
 10
608.2720215100672
 20
224.4378371339009
 30
0.0
 10
605.915616250478
 20
224.5038476336428
 30
0.0
 10
603.8179838446104
 20
224.5993949398334
 30
0.0
 10
602.2535181327162
 20
224.6927432751273
 30
0.0
 10
601.3694045695512
 20
224.75434514132
 30
0.0
 10
601.3770288516379
 20
224.7538800689967
 30
0.0
 10
601.3800256572592
 20
224.7536972673458
 30
0.0
  0
LINE
  5
AA
330
1F
100
AcDbEntity
  8
0
  6
Continuous
 62
     7
370
    25
100
AcDbLine
 10
427.2896834411
 20
238.9649519231
 30
0.0
 11
413.2896834411
 21
238.9649519231
 31
0.0
  0
LINE
  5
AB
330
1F
100
AcDbEntity
  8
0
  6
Continuous
 62
     7
370
    25
100
AcDbLine
 10
615.2896834411
 20
238.9649519231
 30
0.0
 11
601.2896834411
 21
238.9649519231
 31
0.0
  0
LINE
  5
AC
330
1F
100
AcDbEntity
  8
0
  6
Continuous
 62
     1
370
    25
100
AcDbLine
 10
501.7896834411
 20
95.8949519231
 30
0.0
 11
501.7896834411
 21
225.3949519231
 31
0.0
  0
LINE
  5
AD
330
1F
100
AcDbEntity
  8
0
  6
Continuous
 62
     1
370
    25
100
AcDbLine
 10
501.7896834411
 20
-33.6050480769
 30
0.0
 11
501.7896834411
 21
95.8949519231
 31
0.0
  0
LINE
  5
AE
330
1F
100
AcDbEntity
  8
0
  6
Continuous
 62
     1
370
    25
100
AcDbLine
 10
526.7896834411
 20
95.8949519231
 30
0.0
 11
526.7896834411
 21
225.3949519231
 31
0.0
  0
LINE
  5
AF
330
1F
100
AcDbEntity
  8
0
  6
Continuous
 62
     1
370
    25
100
AcDbLine
 10
526.7896834411
 20
-33.6050480769
 30
0.0
 11
526.7896834411
 21
95.8949519231
 31
0.0
  0
ARC
  5
B0
330
1F
100
AcDbEntity
  8
0
  6
Continuous
 62
     7
370
    25
100
AcDbCircle
 10
4379.5887874962
 20
431.0411886171
 30
0.0
 40
4371.625000000019
100
AcDbArc
 50
180.0
 51
181.2255314445
  0
ARC
  5
B1
330
1F
100
AcDbEntity
  8
0
  6
Continuous
 62
     7
370
    25
100
AcDbCircle
 10
-4104.6612125039
 20
431.0411886171
 30
0.0
 40
4371.625000000019
100
AcDbArc
 50
358.7744685555
 51
0.0
  0
LINE
  5
B2
330
1F
100
AcDbEntity
  8
0
  6
Continuous
 62
     7
370
    25
100
AcDbLine
 10
266.9637874962
 20
431.0411886171
 30
0.0
 11
266.9637874962
 21
456.0411886171
 31
0.0
  0
LINE
  5
B3
330
1F
100
AcDbEntity
  8
0
  6
Continuous
 62
     7
370
    25
100
AcDbLine
 10
7.9637874962
 20
456.0411886171
 30
0.0
 11
7.9637874962
 21
431.0411886171
 31
0.0
  0
ARC
  5
B4
330
1F
100
AcDbEntity
  8
0
  6
Continuous
 62
     7
370
    25
100
AcDbCircle
 10
4379.5887874962
 20
456.0411886171
 30
0.0
 40
4371.625000000019
100
AcDbArc
 50
178.7744685555
 51
180.0
  0
ARC
  5
B5
330
1F
100
AcDbEntity
  8
0
  6
Continuous
 62
     7
370
    25
100
AcDbCircle
 10
-4104.6612125039
 20
456.0411886171
 30
0.0
 40
4371.62500000002
100
AcDbArc
 50
0.0
 51
1.2255314445
  0
LINE
  5
B6
330
1F
100
AcDbEntity
  8
0
  6
Continuous
 62
     7
370
    25
100
AcDbLine
 10
265.9637874962
 20
337.5411886171
 30
0.0
 11
8.9637874962
 21
337.5411886171
 31
0.0
  0
LINE
  5
B7
330
1F
100
AcDbEntity
  8
0
  6
Continuous
 62
     7
370
    25
100
AcDbLine
 10
265.9637874962
 20
549.5411886171
 30
0.0
 11
8.9637874962
 21
549.5411886171
 31
0.0
  0
LINE
  5
B8
330
1F
100
AcDbEntity
  8
0
  6
Continuous
 62
     1
370
    25
100
AcDbLine
 10
266.9637874962
 20
431.0411886171
 30
0.0
 11
7.9637874962
 21
431.0411886171
 31
0.0
  0
LINE
  5
B9
330
1F
100
AcDbEntity
  8
0
  6
Continuous
 62
     1
370
    25
100
AcDbLine
 10
266.9637874962
 20
456.0411886171
 30
0.0
 11
7.9637874962
 21
456.0411886171
 31
0.0
  0
ARC
  5
BA
330
1F
100
AcDbEntity
  8
0
  6
Continuous
 62
     7
370
    25
100
AcDbCircle
 10
-221.7110332541
 20
4338.0199519231
 30
0.0
 40
4371.62500000002
100
AcDbArc
 50
270.0
 51
271.2255314445
  0
ARC
  5
BB
330
1F
100
AcDbEntity
  8
0
  6
Continuous
 62
     7
370
    25
100
AcDbCircle
 10
-221.7110332541
 20
-4146.2300480769
 30
0.0
 40
4371.62500000002
100
AcDbArc
 50
89.0223495027
 51
90.0
  0
ARC
  5
BC
330
1F
100
AcDbEntity
  8
0
  6
Continuous
 62
     7
370
    25
100
AcDbCircle
 10
-221.7110332541
 20
-4146.2300480769
 30
0.0
 40
4371.62500000002
100
AcDbArc
 50
88.7744685555
 51
88.8411682158
  0
LINE
  5
BD
330
1F
100
AcDbEntity
  8
0
  6
Continuous
 62
     7
370
    25
100
AcDbLine
 10
-221.7110332541
 20
225.3949519231
 30
0.0
 11
-246.7110332541
 21
225.3949519231
 31
0.0
  0
LINE
  5
BE
330
1F
100
AcDbEntity
  8
0
  6
Continuous
 62
     7
370
    25
100
AcDbLine
 10
-246.7110332541
 20
-33.6050480769
 30
0.0
 11
-221.7110332541
 21
-33.6050480769
 31
0.0
  0
ARC
  5
BF
330
1F
100
AcDbEntity
  8
0
  6
Continuous
 62
     7
370
    25
100
AcDbCircle
 10
-246.7110332541
 20
4338.0199519231
 30
0.0
 40
4371.62500000002
100
AcDbArc
 50
268.7744685555
 51
270.0
  0
ARC
  5
C0
330
1F
100
AcDbEntity
  8
0
  6
Continuous
 62
     7
370
    25
100
AcDbCircle
 10
-246.7110332541
 20
-4146.2300480769
 30
0.0
 40
4371.62500000002
100
AcDbArc
 50
91.1588243781
 51
91.2255314445
  0
ARC
  5
C1
330
1F
100
AcDbEntity
  8
0
  6
Continuous
 62
     7
370
    25
100
AcDbCircle
 10
-246.7110332541
 20
-4146.2300480769
 30
0.0
 40
4371.62500000002
100
AcDbArc
 50
90.0
 51
90.9776521424
  0
LINE
  5
C2
330
1F
100
AcDbEntity
  8
0
  6
Continuous
 62
     7
370
    25
100
AcDbLine
 10
-133.2110332541
 20
224.4961001394
 30
0.0
 11
-133.2110332541
 21
238.9649519231
 31
0.0
  0
LINE
  5
C3
330
1F
100
AcDbEntity
  8
0
  6
Continuous
 62
     7
370
    25
100
AcDbLine
 10
-147.2110332541
 20
238.9649519231
 30
0.0
 11
-147.2110332541
 21
224.7537079464
 31
0.0
  0
LINE
  5
C4
330
1F
100
AcDbEntity
  8
0
  6
Continuous
 62
     7
370
    25
100
AcDbLine
 10
-321.2110332541
 20
224.7537143244
 30
0.0
 11
-321.2110332541
 21
238.9649519231
 31
0.0
  0
LINE
  5
C5
330
1F
100
AcDbEntity
  8
0
  6
Continuous
 62
     7
370
    25
100
AcDbLine
 10
-335.2110332541
 20
238.9649519231
 30
0.0
 11
-335.2110332541
 21
224.4960791703
 31
0.0
  0
LINE
  5
C6
330
1F
100
AcDbEntity
  8
0
  6
Continuous
 62
     7
370
    25
100
AcDbLine
 10
-128.2110332541
 20
224.3949519231
 30
0.0
 11
-128.2110332541
 21
-32.6050480769
 31
0.0
  0
SPLINE
  5
C7
330
1F
100
AcDbEntity
  8
0
  6
Continuous
 62
     7
370
    25
100
AcDbSpline
210
0.0
220
0.0
230
1.0
 70
     8
 71
     3
 72
    10
 73
     6
 74
     0
 42
0.00000001
 43
0.00000001
 40
0.0
 40
0.0
 40
0.0
 40
0.0
 40
0.4251158987078739
 40
0.8502594710547524
 40
1.0
 40
1.0
 40
1.0
 40
1.0
 10
-145.1231922785701
 20
224.6274553535187
 30
0.0
 10
-145.6193730820854
 20
224.6569696477999
 30
0.0
 10
-146.6117669888451
 20
224.7160001576453
 30
0.0
 10
-147.2368534846213
 20
224.7620254234555
 30
0.0
 10
-147.144631541072
 20
224.7554134999157
 30
0.0
 10
-147.1206104165072
 20
224.7536912868192
 30
0.0
  0
SPLINE
  5
C8
330
1F
100
AcDbEntity
  8
0
  6
Continuous
 62
     7
370
    25
100
AcDbSpline
210
0.0
220
0.0
230
1.0
 70
     8
 71
     3
 72
    15
 73
    11
 74
     0
 42
0.00000001
 43
0.00000001
 40
0.0
 40
0.0
 40
0.0
 40
0.0
 40
0.0476358143888249
 40
0.191100819588786
 40
0.334602095788833
 40
0.4781690544926389
 40
0.6216698575103858
 40
0.7650436662643658
 40
0.9084661760339604
 40
1.0
 40
1.0
 40
1.0
 40
1.0
 10
-133.2990736696121
 20
224.496089717762
 30
0.0
 10
-133.2745732923383
 20
224.4969132929556
 30
0.0
 10
-133.1762850141313
 20
224.5002172334151
 30
0.0
 10
-133.8175305059057
 20
224.4783260566204
 30
0.0
 10
-135.159804761803
 20
224.4433223003351
 30
0.0
 10
-137.1254274452194
 20
224.4170889675447
 30
0.0
 10
-139.4261686779031
 20
224.4252617111501
 30
0.0
 10
-141.8087696429562
 20
224.4773669514733
 30
0.0
 10
-143.7730594641282
 20
224.5552804935509
 30
0.0
 10
-144.7446729987307
 20
224.6072206212573
 30
0.0
 10
-145.1231922785701
 20
224.6274553535187
 30
0.0
  0
LINE
  5
C9
330
1F
100
AcDbEntity
  8
0
  6
Continuous
 62
     7
370
    25
100
AcDbLine
 10
-340.2110332541
 20
224.3949519231
 30
0.0
 11
-340.2110332541
 21
-32.6050480769
 31
0.0
  0
SPLINE
  5
CA
330
1F
100
AcDbEntity
  8
0
  6
Continuous
 62
     7
370
    25
100
AcDbSpline
210
0.0
220
0.0
230
1.0
 70
     8
 71
     3
 72
    10
 73
     6
 74
     0
 42
0.00000001
 43
0.00000001
 40
0.0
 40
0.0
 40
0.0
 40
0.0
 40
0.4280143632615858
 40
0.8560331275791727
 40
1.0
 40
1.0
 40
1.0
 40
1.0
 10
-333.1491335221703
 20
224.4446120550568
 30
0.0
 10
-333.6420992653636
 20
224.4556588099451
 30
0.0
 10
-334.6280358206685
 20
224.4777524333099
 30
0.0
 10
-335.2422667405318
 20
224.5001952865895
 30
0.0
 10
-335.1465186495967
 20
224.4968993271562
 30
0.0
 10
-335.1224191752274
 20
224.4960697451864
 30
0.0
  0
SPLINE
  5
CB
330
1F
100
AcDbEntity
  8
0
  6
Continuous
 62
     7
370
    25
100
AcDbSpline
210
0.0
220
0.0
230
1.0
 70
     8
 71
     3
 72
    15
 73
    11
 74
     0
 42
0.00000001
 43
0.00000001
 40
0.0
 40
0.0
 40
0.0
 40
0.0
 40
0.0502374403128911
 40
0.1931086024991092
 40
0.3361014708049005
 40
0.4794138593432278
 40
0.6228473731869839
 40
0.7660987229193152
 40
0.9091525498520641
 40
1.0
 40
1.0
 40
1.0
 40
1.0
 10
-321.3013727701505
 20
224.7536974578507
 30
0.0
 10
-321.2768725945712
 20
224.7554324778636
 30
0.0
 10
-321.1826959279725
 20
224.7621017525703
 30
0.0
 10
-321.8351042221356
 20
224.7156190969806
 30
0.0
 10
-323.1875418302633
 20
224.6302420941195
 30
0.0
 10
-325.1588812466653
 20
224.5308819209402
 30
0.0
 10
-327.4648520026392
 20
224.4536034159112
 30
0.0
 10
-329.8493761239939
 20
224.4174306591028
 30
0.0
 10
-331.8086041342871
 20
224.4226269409878
 30
0.0
 10
-332.7741245797894
 20
224.4384617875209
 30
0.0
 10
-333.1491335221703
 20
224.4446120550568
 30
0.0
  0
LINE
  5
CC
330
1F
100
AcDbEntity
  8
0
  6
Continuous
 62
     7
370
    25
100
AcDbLine
 10
-133.2110332541
 20
238.9649519231
 30
0.0
 11
-147.2110332541
 21
238.9649519231
 31
0.0
  0
LINE
  5
CD
330
1F
100
AcDbEntity
  8
0
  6
Continuous
 62
     7
370
    25
100
AcDbLine
 10
-321.2110332541
 20
238.9649519231
 30
0.0
 11
-335.2110332541
 21
238.9649519231
 31
0.0
  0
LINE
  5
CE
330
1F
100
AcDbEntity
  8
0
  6
Continuous
 62
     1
370
    25
100
AcDbLine
 10
-221.7110332541
 20
225.3949519231
 30
0.0
 11
-221.7110332541
 21
-33.6050480769
 31
0.0
  0
LINE
  5
CF
330
1F
100
AcDbEntity
  8
0
  6
Continuous
 62
     1
370
    25
100
AcDbLine
 10
-246.7110332541
 20
225.3949519231
 30
0.0
 11
-246.7110332541
 21
-33.6050480769
 31
0.0
  0
ARC
  5
D0
330
1F
100
AcDbEntity
  8
0
  6
Continuous
 62
     7
370
    25
100
AcDbCircle
 10
-4104.6612125039
 20
-272.8365802626
 30
0.0
 40
4371.625000000019
100
AcDbArc
 50
0.0
 51
1.2255314445
  0
ARC
  5
D1
330
1F
100
AcDbEntity
  8
0
  6
Continuous
 62
     7
370
    25
100
AcDbCircle
 10
4379.5887874962
 20
-272.8365802626
 30
0.0
 40
4371.625000000019
100
AcDbArc
 50
178.7744685555
 51
180.0
  0
LINE
  5
D2
330
1F
100
AcDbEntity
  8
0
  6
Continuous
 62
     7
370
    25
100
AcDbLine
 10
7.9637874962
 20
-272.8365802626
 30
0.0
 11
7.9637874962
 21
-297.8365802626
 31
0.0
  0
LINE
  5
D3
330
1F
100
AcDbEntity
  8
0
  6
Continuous
 62
     7
370
    25
100
AcDbLine
 10
266.9637874962
 20
-297.8365802626
 30
0.0
 11
266.9637874962
 21
-272.8365802626
 31
0.0
  0
ARC
  5
D4
330
1F
100
AcDbEntity
  8
0
  6
Continuous
 62
     7
370
    25
100
AcDbCircle
 10
-4104.6612125039
 20
-297.8365802626
 30
0.0
 40
4371.62500000002
100
AcDbArc
 50
358.7744685555
 51
0.0
  0
ARC
  5
D5
330
1F
100
AcDbEntity
  8
0
  6
Continuous
 62
     7
370
    25
100
AcDbCircle
 10
4379.5887874962
 20
-297.8365802626
 30
0.0
 40
4371.625000000019
100
AcDbArc
 50
180.0
 51
181.2255314445
  0
CIRCLE
  5
D6
330
1F
100
AcDbEntity
  8
0
  6
Continuous
 62
     7
370
    25
100
AcDbCircle
 10
137.4637874962
 20
-191.3365802626
 30
0.0
 40
5.0
  0
CIRCLE
  5
D7
330
1F
100
AcDbEntity
  8
0
  6
Continuous
 62
     7
370
    25
100
AcDbCircle
 10
137.4637874962
 20
-191.3365802626
 30
0.0
 40
7.000000000000028
  0
CIRCLE
  5
D8
330
1F
100
AcDbEntity
  8
0
  6
Continuous
 62
     7
370
    25
100
AcDbCircle
 10
137.4637874962
 20
-379.3365802626
 30
0.0
 40
7.000000000000057
  0
CIRCLE
  5
D9
330
1F
100
AcDbEntity
  8
0
  6
Continuous
 62
     7
370
    25
100
AcDbCircle
 10
137.4637874962
 20
-379.3365802626
 30
0.0
 40
5.0
  0
LINE
  5
DA
330
1F
100
AcDbEntity
  8
0
  6
Continuous
 62
     7
370
    25
100
AcDbLine
 10
8.9637874962
 20
-179.3365802626
 30
0.0
 11
265.9637874962
 21
-179.3365802626
 31
0.0
  0
LINE
  5
DB
330
1F
100
AcDbEntity
  8
0
  6
Continuous
 62
     7
370
    25
100
AcDbLine
 10
8.9637874962
 20
-391.3365802626
 30
0.0
 11
265.9637874962
 21
-391.3365802626
 31
0.0
  0
LINE
  5
DC
330
1F
100
AcDbEntity
  8
0
  6
Continuous
 62
     1
370
    25
100
AcDbLine
 10
7.9637874962
 20
-272.8365802626
 30
0.0
 11
266.9637874962
 21
-272.8365802626
 31
0.0
  0
LINE
  5
DD
330
1F
100
AcDbEntity
  8
0
  6
Continuous
 62
     1
370
    25
100
AcDbLine
 10
7.9637874962
 20
-297.8365802626
 30
0.0
 11
266.9637874962
 21
-297.8365802626
 31
0.0
  0
INSERT
  5
E9
330
1F
100
AcDbEntity
  8
FORMAT
 62
     7
100
AcDbBlockReference
  2
SW_CENTERMARKSYMBOL_1
 10
137.4637874962
 20
-191.3365802626
 30
0.0
  0
INSERT
  5
F5
330
1F
100
AcDbEntity
  8
FORMAT
 62
     7
100
AcDbBlockReference
  2
SW_CENTERMARKSYMBOL_2
 10
137.4637874962
 20
-379.3365802626
 30
0.0
  0
SPLINE
  5
F6
330
1F
100
AcDbEntity
  8
0
  6
Continuous
 62
     7
370
    25
100
AcDbSpline
210
0.0
220
0.0
230
1.0
 70
     8
 71
     3
 72
    11
 73
     7
 74
     0
 42
0.00000001
 43
0.00000001
 40
0.0
 40
0.0
 40
0.0
 40
0.0
 40
0.0033797270876023
 40
0.3653035392748553
 40
0.7271726450675315
 40
0.9999999999999999
 40
0.9999999999999999
 40
0.9999999999999999
 40
0.9999999999999999
 10
469.6602252831631
 20
-196.0125650351169
 30
0.0
 10
469.584429538666
 20
-196.05584794269
 30
0.0
 10
461.3919178330973
 20
-200.7341544794977
 30
0.0
 10
445.2079093012701
 20
-210.2625890507804
 30
0.0
 10
423.0795761765665
 20
-223.4066715933051
 30
0.0
 10
409.1014874972722
 20
-231.9621091844813
 30
0.0
 10
403.0929382184148
 20
-235.6397055675203
 30
0.0
  0
SPLINE
  5
F7
330
1F
100
AcDbEntity
  8
0
  6
Continuous
 62
     7
370
    25
100
AcDbSpline
210
0.0
220
0.0
230
1.0
 70
     8
 71
     3
 72
    10
 73
     6
 74
     0
 42
0.00000001
 43
0.00000001
 40
0.0
 40
0.0
 40
0.0
 40
0.0
 40
0.2794384410407373
 40
0.6414195150497018
 40
1.0
 40
1.0
 40
1.0
 40
1.0
 10
531.5429837522197
 20
-458.1476294503578
 30
0.0
 10
537.8810553328229
 20
-454.6993720954455
 30
0.0
 10
552.4293858504136
 20
-446.7842851370553
 30
0.0
 10
574.9720303171562
 20
-434.1827871920324
 30
0.0
 10
591.1147698252265
 20
-424.9245881137687
 30
0.0
 10
599.1480478835102
 20
-420.317334959652
 30
0.0
  0
LINE
  5
F8
330
1F
100
AcDbEntity
  8
0
  6
Continuous
 62
     7
370
    25
100
AcDbLine
 10
487.3370346748
 20
-185.8065400532
 30
0.0
 11
469.6593651452
 21
-196.011641451
 31
0.0
  0
LINE
  5
F9
330
1F
100
AcDbEntity
  8
0
  6
Continuous
 62
     7
370
    25
100
AcDbLine
 10
599.1488410215
 20
-420.3182968076
 30
0.0
 11
616.8265105512
 21
-410.1131954098
 31
0.0
  0
LINE
  5
FA
330
1F
100
AcDbEntity
  8
0
  6
Continuous
 62
     7
370
    25
100
AcDbLine
 10
483.7749004166
 20
-236.3166898506
 30
0.0
 11
483.7749004166
 21
-224.6111057295
 31
0.0
  0
LINE
  5
FB
330
1F
100
AcDbEntity
  8
0
  6
Continuous
 62
     7
370
    25
100
AcDbLine
 10
469.7749004166
 20
-224.6111057295
 30
0.0
 11
469.7749004166
 21
-236.4666859054
 31
0.0
  0
SPLINE
  5
FC
330
1F
100
AcDbEntity
  8
0
  6
Continuous
 62
     7
370
    25
100
AcDbSpline
210
0.0
220
0.0
230
1.0
 70
     8
 71
     3
 72
    10
 73
     6
 74
     0
 42
0.00000001
 43
0.00000001
 40
0.0
 40
0.0
 40
0.0
 40
0.0
 40
0.2794470012288026
 40
0.6414242752195048
 40
1.0
 40
1.0
 40
1.0
 40
1.0
 10
554.9436733378525
 20
-147.9767806016721
 30
0.0
 10
548.6053409399881
 20
-151.4251795615169
 30
0.0
 10
534.0567494484952
 20
-159.3404078293457
 30
0.0
 10
511.5138676556009
 20
-171.9420367980607
 30
0.0
 10
495.3711505266034
 20
-181.2002232129291
 30
0.0
 10
487.337894812828
 20
-185.8074636373333
 30
0.0
  0
SPLINE
  5
FD
330
1F
100
AcDbEntity
  8
0
  6
Continuous
 62
     7
370
    25
100
AcDbSpline
210
0.0
220
0.0
230
1.0
 70
     8
 71
     3
 72
    11
 73
     7
 74
     0
 42
0.00000001
 43
0.00000001
 40
0.0
 40
0.0
 40
0.0
 40
0.0
 40
0.0033786995803303
 40
0.3652991224612043
 40
0.7271648394578187
 40
1.0
 40
1.0
 40
1.0
 40
1.0
 10
616.8257174131736
 20
-410.1122335618688
 30
0.0
 10
616.9014908232635
 20
-410.0689634070815
 30
0.0
 10
625.0939801386462
 20
-405.390669526033
 30
0.0
 10
641.2779665315824
 20
-395.8622480243279
 30
0.0
 10
663.406528979602
 20
-382.7180276865942
 30
0.0
 10
677.3848454967575
 20
-374.16244989238
 30
0.0
 10
683.3936228059307
 20
-370.4847136175111
 30
0.0
  0
LINE
  5
FE
330
1F
100
AcDbEntity
  8
0
  6
Continuous
 62
     7
370
    25
100
AcDbLine
 10
616.7109752797
 20
-159.7250148829
 30
0.0
 11
616.7109752797
 21
-147.8687432182
 31
0.0
  0
LINE
  5
FF
330
1F
100
AcDbEntity
  8
0
  6
Continuous
 62
     7
370
    25
100
AcDbLine
 10
602.7109752797
 20
-147.8687432182
 30
0.0
 11
602.7109752797
 21
-159.5755020412
 31
0.0
  0
LWPOLYLINE
  5
100
330
1F
100
AcDbEntity
  8
0
  6
Continuous
 62
     7
370
    25
100
AcDbPolyline
 90
      132
 70
   128
 43
0.0
 10
377.4263976599
 20
-293.8778271724
 10
377.5308918204
 20
-288.9075123317
 10
377.8441339619
 20
-284.0692757641
 10
378.3654036174
 20
-279.3742455687
 10
379.0935018501
 20
-274.8332204654
 10
380.0267540106
 20
-270.4566449575
 10
381.1630135891
 20
-266.2545853089
 10
382.4996671522
 20
-262.2367063914
 10
384.0336403538
 20
-258.4122494552
 10
385.7614050065
 20
-254.790010874
 10
387.678987196
 20
-251.3783219125
 10
389.781976422
 20
-248.1850295647
 10
392.0655357419
 20
-245.2174785052
 10
394.5244128959
 20
-242.4824941966
 10
397.152952388
 20
-239.9863671906
 10
399.9451084929
 20
-237.7348386591
 10
402.8944591623
 20
-235.7330871899
 10
405.9942207949
 20
-233.9857168757
 10
409.2372638399
 20
-232.496746724
 10
412.6161291941
 20
-231.269601414
 10
416.1230453591
 20
-230.3071034192
 10
419.7499463153
 20
-229.6114665158
 10
423.4884900742
 20
-229.184290691
 10
427.3300778654
 20
-229.0265584629
 10
431.2658739139
 20
-229.1386326206
 10
435.2868257627
 20
-229.5202553901
 10
439.3836850935
 20
-230.1705490266
 10
443.5470289988
 20
-231.0880178341
 10
447.767281654
 20
-232.2705516048
 10
452.0347363429
 20
-233.7154304733
 10
456.3395777828
 20
-235.4193311716
 10
460.6719047006
 20
-237.3783346738
 10
465.0217526056
 20
-239.5879352089
 10
469.379116708
 20
-242.0430506249
 10
473.7339749309
 20
-244.7380340777
 10
478.0763109608
 20
-247.6666870189
 10
482.3961372856
 20
-250.822273453
 10
486.6835181665
 20
-254.19753543
 10
490.9285924899
 20
-257.7847097393
 10
495.1215964489
 20
-261.5755457649
 10
499.2528860001
 20
-265.5613244625
 10
503.312959045
 20
-269.7328784134
 10
507.2924772855
 20
-274.0806129099
 10
511.1822877023
 20
-278.5945280232
 10
514.9734436066
 20
-283.2642416039
 10
518.6572252184
 20
-288.0790131612
 10
522.2251597219
 20
-293.0277685662
 10
525.6690407535
 20
-298.0991255229
 10
528.9809472764
 20
-303.2814197478
 10
532.1532617995
 20
-308.562731798
 10
535.1786878977
 20
-313.9309144866
 10
538.0502669941
 20
-319.3736208215
 10
540.7613943646
 20
-324.8783324036
 10
543.3058343296
 20
-330.4323882198
 10
545.6777345954
 20
-336.0230137639
 10
547.8716397155
 20
-341.637350418
 10
549.8825036379
 20
-347.2624850277
 10
551.705701311
 20
-352.8854796032
 10
553.3370393217
 20
-358.4934010769
 10
554.7727655405
 20
-364.0733510496
 10
556.0095777509
 20
-369.6124954576
 10
557.0446312452
 20
-375.0980940913
 10
557.8755453673
 20
-380.5175298979
 10
558.500408988
 20
-385.8583380015
 10
558.9177849011
 20
-391.1082343722
 10
559.1267131284
 20
-396.2551440803
 10
559.1267131284
 20
-401.2872290684
 10
558.9177849011
 20
-406.1929153798
 10
558.500408988
 20
-410.9609197788
 10
557.8755453673
 20
-415.5802757024
 10
557.0446312452
 20
-420.0403584841
 10
556.0095777509
 20
-424.3309097904
 10
554.7727655405
 20
-428.442061216
 10
553.3370393217
 20
-432.3643569807
 10
551.705701311
 20
-436.0887756786
 10
549.8825036379
 20
-439.6067510274
 10
547.8716397155
 20
-442.9101915711
 10
545.6777345954
 20
-445.9914992904
 10
543.3058343296
 20
-448.843587079
 10
540.7613943646
 20
-451.4598950435
 10
538.0502669941
 20
-453.8344055917
 10
535.1786878977
 20
-455.9616572734
 10
532.1532617995
 20
-457.8367573414
 10
528.9809472764
 20
-459.4553930055
 10
525.6690407535
 20
-460.8138413518
 10
522.2251597219
 20
-461.9089779057
 10
518.6572252184
 20
-462.7382838178
 10
514.9734436066
 20
-463.2998516581
 10
511.1822877023
 20
-463.5923898026
 10
507.2924772855
 20
-463.615225404
 10
503.312959045
 20
-463.3683059399
 10
499.2528860001
 20
-462.8521993328
 10
495.1215964489
 20
-462.0680926446
 10
490.9285924899
 20
-461.0177893456
 10
486.6835181665
 20
-459.7037051673
 10
482.3961372856
 20
-458.1288625452
 10
478.0763109608
 20
-456.2968836679
 10
473.7339749309
 20
-454.2119821456
 10
469.379116708
 20
-451.8789533184
 10
465.0217526056
 20
-449.3031632276
 10
460.6719047006
 20
-446.4905362728
 10
456.3395777828
 20
-443.4475415862
 10
452.0347363429
 20
-440.181178153
 10
447.767281654
 20
-436.6989587139
 10
443.5470289988
 20
-433.0088924851
 10
439.3836850935
 20
-429.1194667372
 10
435.2868257627
 20
-425.0396272741
 10
431.2658739139
 20
-420.7787578572
 10
427.3300778654
 20
-416.3466586228
 10
423.4884900742
 20
-411.7535235412
 10
419.7499463153
 20
-407.0099169702
 10
416.1230453591
 20
-402.1267493569
 10
412.6161291941
 20
-397.1152521433
 10
409.2372638399
 20
-391.9869519337
 10
405.9942207949
 20
-386.7536439828
 10
402.8944591623
 20
-381.4273650667
 10
399.9451084929
 20
-376.0203657974
 10
397.152952388
 20
-370.5450824467
 10
394.5244128959
 20
-365.0141083417
 10
392.0655357419
 20
-359.4401649
 10
389.781976422
 20
-353.8360723702
 10
387.678987196
 20
-348.2147203447
 10
385.7614050065
 20
-342.5890381133
 10
384.0336403538
 20
-336.9719649254
 10
382.4996671522
 20
-331.3764202294
 10
381.1630135891
 20
-325.8152739573
 10
380.0267540106
 20
-320.3013169238
 10
379.0935018501
 20
-314.8472314068
 10
378.3654036174
 20
-309.4655619776
 10
377.8441339619
 20
-304.1686866486
 10
377.5308918204
 20
-298.9687884027
 10
377.4263976599
 20
-293.8778271724
  0
SPLINE
  5
101
330
1F
100
AcDbEntity
  8
0
  6
Continuous
 62
     7
370
    25
100
AcDbSpline
210
0.0
220
0.0
230
1.0
 70
     8
 71
     3
 72
    12
 73
     8
 74
     0
 42
0.00000001
 43
0.00000001
 40
0.0
 40
0.0
 40
0.0
 40
0.0
 40
0.2144292001755399
 40
0.4288606052184843
 40
0.6432174640842635
 40
0.857511957420272
 40
1.0
 40
1.0
 40
1.0
 40
1.0
 10
476.7913527110256
 20
-240.5085586574513
 30
0.0
 10
476.0044812684012
 20
-240.4556299327463
 30
0.0
 10
474.4307302921498
 20
-240.349771939097
 30
0.0
 10
472.3263871730314
 20
-239.6370537624602
 30
0.0
 10
470.754254736363
 20
-238.617199908261
 30
0.0
 10
469.8595740052718
 20
-237.5043039317647
 30
0.0
 10
469.8622997558765
 20
-236.760793837508
 30
0.0
 10
469.8633883373768
 20
-236.4638586254271
 30
0.0
  0
SPLINE
  5
102
330
1F
100
AcDbEntity
  8
0
  6
Continuous
 62
     7
370
    25
100
AcDbSpline
210
0.0
220
0.0
230
1.0
 70
     8
 71
     3
 72
    13
 73
     9
 74
     0
 42
0.00000001
 43
0.00000001
 40
0.0
 40
0.0
 40
0.0
 40
0.0
 40
0.0035396999205904
 40
0.218640501335429
 40
0.4339231024574325
 40
0.6489322893494721
 40
0.8636450098095357
 40
1.0
 40
1.0
 40
1.0
 40
1.0
 10
483.7685245791646
 20
-236.3172940835855
 30
0.0
 10
483.7706452582514
 20
-236.3250112270878
 30
0.0
 10
483.9016355537897
 20
-236.801684437267
 30
0.0
 10
483.4343113613675
 20
-237.7866579941092
 30
0.0
 10
482.3357837484226
 20
-239.051357057288
 30
0.0
 10
480.5175313913206
 20
-239.9905556844897
 30
0.0
 10
478.570561276574
 20
-240.458813883274
 30
0.0
 10
477.2890807940294
 20
-240.4946427110187
 30
0.0
 10
476.7913527110256
 20
-240.5085586574513
 30
0.0
  0
LWPOLYLINE
  5
103
330
1F
100
AcDbEntity
  8
0
  6
Continuous
 62
     7
370
    25
100
AcDbPolyline
 90
      124
 70
   128
 43
0.0
 10
388.2451314121
 20
-300.1233492278
 10
388.3495448765
 20
-295.4639715811
 10
388.662512867
 20
-290.9373029386
 10
389.1832188858
 20
-286.5551528621
 10
389.9103044704
 20
-282.3289538806
 10
390.8418727375
 20
-278.2697316649
 10
391.9754933318
 20
-274.3880762622
 10
393.3082087666
 20
-270.6941144682
 10
394.8365421396
 20
-267.1974834075
 10
396.5565062035
 20
-263.9073053913
 10
398.4636137684
 20
-260.8321641184
 10
400.5528894085
 20
-257.9800822812
 10
402.818882442
 20
-255.3585006356
 10
405.2556811521
 20
-252.9742585888
 10
407.8569282089
 20
-250.8335763561
 10
410.615837256
 20
-248.9420387329
 10
413.5252106148
 20
-247.304580525
 10
416.5774580621
 20
-245.9254736738
 10
419.7646166331
 20
-244.8083161118
 10
423.0783713948
 20
-243.9560223753
 10
426.5100771395
 20
-243.3708160015
 10
430.0507809387
 20
-243.054223727
 10
433.6912455005
 20
-243.0070715048
 10
437.4219732684
 20
-243.2294823498
 10
441.2332311998
 20
-243.7208760173
 10
445.1150761578
 20
-244.4799705175
 10
449.0573808521
 20
-245.5047854595
 10
453.0498602599
 20
-246.7926472181
 10
457.0820984584
 20
-248.340195909
 10
461.1435757984
 20
-250.1433941543
 10
465.2236963493
 20
-252.1975376158
 10
469.3118155425
 20
-254.4972672677
 10
473.3972679417
 20
-257.036583378
 10
477.4693950681
 20
-259.8088611607
 10
481.517573207
 20
-262.8068680597
 10
485.5312411238
 20
-266.0227826174
 10
489.4999276172
 20
-269.4482148797
 10
493.4132788374
 20
-273.0742282852
 10
497.2610852977
 20
-276.8913629787
 10
501.0333085104
 20
-280.8896604918
 10
504.720107176
 20
-285.0586897227
 10
508.3118628576
 20
-289.3875741501
 10
511.7992050747
 20
-293.865020209
 10
515.1730357498
 20
-298.4793467537
 10
518.4245529437
 20
-303.2185155331
 10
521.5452738194
 20
-308.070162597
 10
524.5270567725
 20
-313.0216305522
 10
527.3621226716
 20
-318.0600015841
 10
530.0430751536
 20
-323.172131158
 10
532.5629199195
 20
-328.3446823114
 10
534.915082982
 20
-333.5641604492
 10
537.0934278163
 20
-338.8169485486
 10
539.0922713694
 20
-344.0893426854
 10
540.9063988867
 20
-349.3675877852
 10
542.5310775167
 20
-354.6379135093
 10
543.9620686583
 20
-359.8865701795
 10
545.1956390191
 20
-365.0998646499
 10
546.2285703547
 20
-370.2641960305
 10
547.0581678653
 20
-375.3660911704
 10
547.6822672257
 20
-380.3922398076
 10
548.0992402319
 20
-385.3295292942
 10
548.3079990489
 20
-390.1650788058
 10
548.3079990489
 20
-394.8862729457
 10
548.0992402319
 20
-399.4807946575
 10
547.6822672257
 20
-403.9366573586
 10
547.0581678653
 20
-408.2422362121
 10
546.2285703547
 20
-412.3862984543
 10
545.1956390191
 20
-416.3580326999
 10
543.9620686583
 20
-420.1470771478
 10
542.5310775167
 20
-423.7435466137
 10
540.9063988867
 20
-427.1380583194
 10
539.0922713694
 20
-430.3217563714
 10
537.0934278163
 20
-433.286334865
 10
534.915082982
 20
-436.0240595534
 10
532.5629199195
 20
-438.5277880255
 10
530.0430751536
 20
-440.7909883396
 10
527.3621226716
 20
-442.8077560644
 10
524.5270567725
 20
-444.5728296833
 10
521.5452738194
 20
-446.0816043206
 10
518.4245529437
 20
-447.3301437557
 10
515.1730357498
 20
-448.3151906918
 10
511.7992050747
 20
-449.0341752537
 10
508.3118628576
 20
-449.485221693
 10
504.720107176
 20
-449.6671532808
 10
501.0333085104
 20
-449.5794953786
 10
497.2610852977
 20
-449.2224766757
 10
493.4132788374
 20
-448.5970285933
 10
489.4999276172
 20
-447.7047828538
 10
485.5312411238
 20
-446.5480672246
 10
481.517573207
 20
-445.1298994447
 10
477.4693950681
 20
-443.4539793519
 10
473.3972679417
 20
-441.5246792304
 10
469.3118155425
 20
-439.3470324039
 10
465.2236963493
 20
-436.9267201043
 10
461.1435757984
 20
-434.2700566501
 10
457.0820984584
 20
-431.3839729728
 10
453.0498602599
 20
-428.2759985354
 10
449.0573808521
 20
-424.9542416881
 10
445.1150761578
 20
-421.4273685154
 10
441.2332311998
 20
-417.7045802267
 10
437.4219732684
 20
-413.7955891516
 10
433.6912455005
 20
-409.7105934014
 10
430.0507809387
 20
-405.4602502636
 10
426.5100771395
 20
-401.0556483982
 10
423.0783713948
 20
-396.5082789086
 10
419.7646166331
 20
-391.8300053625
 10
416.5774580621
 20
-387.0330328415
 10
413.5252106148
 20
-382.1298760991
 10
410.615837256
 20
-377.1333269115
 10
407.8569282089
 20
-372.056420705
 10
405.2556811521
 20
-366.9124025482
 10
402.818882442
 20
-361.7146925972
 10
400.5528894085
 20
-356.4768510837
 10
398.4636137684
 20
-351.2125429382
 10
396.5565062035
 20
-345.9355021395
 10
394.8365421396
 20
-340.6594958847
 10
393.3082087666
 20
-335.3982886716
 10
391.9754933318
 20
-330.1656063892
 10
390.8418727375
 20
-324.9751005079
 10
389.9103044704
 20
-319.8403124651
 10
389.1832188858
 20
-314.7746383364
 10
388.662512867
 20
-309.7912938874
 10
388.3495448765
 20
-304.9032800945
 10
388.2451314121
 20
-300.1233492278
  0
LWPOLYLINE
  5
104
330
1F
100
AcDbEntity
  8
0
  6
Continuous
 62
     7
370
    25
100
AcDbPolyline
 90
       31
 70
   128
 43
0.0
 10
481.7246478849
 20
-221.7536773382
 10
482.6455943923
 20
-222.4102117725
 10
483.3099634021
 20
-223.1629358338
 10
483.6887188008
 20
-223.9789518686
 10
483.7653071599
 20
-224.8225960606
 10
483.5363812007
 20
-225.6569971103
 10
483.011946086
 20
-226.4456876879
 10
482.2149221468
 20
-227.1541982306
 10
481.180143154
 20
-227.7515634279
 10
479.9528339148
 20
-228.2116755542
 10
478.5866337324
 20
-228.5144255017
 10
477.1412521103
 20
-228.6465816449
 10
475.6798591614
 20
-228.6023681263
 10
474.2663247698
 20
-228.3837172888
 10
472.9624271715
 20
-228.0001852231
 10
471.8251529483
 20
-227.4685341209
 10
470.904206441
 20
-226.8119996866
 10
470.2398374312
 20
-226.0592756253
 10
469.8610820325
 20
-225.2432595904
 10
469.7844936734
 20
-224.3996153985
 10
470.0134196326
 20
-223.5652143488
 10
470.5378547473
 20
-222.7765237712
 10
471.3348786864
 20
-222.0680132285
 10
472.3696576793
 20
-221.4706480312
 10
473.5969669185
 20
-221.0105359049
 10
474.9631671009
 20
-220.7077859574
 10
476.4085487229
 20
-220.5756298142
 10
477.8699416719
 20
-220.6198433328
 10
479.2834760635
 20
-220.8384941703
 10
480.5873736617
 20
-221.222026236
 10
481.7246478849
 20
-221.7536773382
  0
LWPOLYLINE
  5
105
330
1F
100
AcDbEntity
  8
0
  6
Continuous
 62
     7
370
    25
100
AcDbPolyline
 90
       26
 70
   128
 43
0.0
 10
480.3104343226
 20
-222.57008545
 10
481.0786105517
 20
-223.1417889583
 10
481.576368845
 20
-223.8058150431
 10
481.7724332185
 20
-224.5204405033
 10
481.6544842263
 20
-225.2407627932
 10
481.2299330376
 20
-225.9215214141
 10
480.5254557648
 20
-226.5199417981
 10
479.5853173059
 20
-226.9984229917
 10
478.4685900179
 20
-227.3269002618
 10
477.2454419832
 20
-227.4847341735
 10
475.9927280914
 20
-227.4620074415
 10
474.7891609635
 20
-227.2601480701
 10
473.7103651484
 20
-226.891839626
 10
472.8241253548
 20
-226.3802242832
 10
472.1861272882
 20
-225.7574487153
 10
471.8364587137
 20
-225.0626442016
 10
471.7970905936
 20
-224.3394678651
 10
472.0704965719
 20
-223.6333595347
 10
472.6394975453
 20
-222.9886865935
 10
473.46834109
 20
-222.4459562136
 10
474.5049479179
 20
-222.0392701405
 10
475.6841842097
 20
-221.7941819561
 10
476.931954212
 20
-221.7260914523
 10
478.1698559468
 20
-221.8392770059
 10
479.3201074954
 20
-222.1266267522
 10
480.3104343226
 20
-222.57008545
  0
LWPOLYLINE
  5
106
330
1F
100
AcDbEntity
  8
0
  6
Continuous
 62
     7
370
    25
100
AcDbPolyline
 90
       15
 70
   128
 43
0.0
 10
554.9304699292
 20
-147.9573147688
 10
555.9008584065
 20
-147.4464570225
 10
559.1439014514
 20
-145.9574868708
 10
562.5227668057
 20
-144.7303415608
 10
566.0296829707
 20
-143.767843566
 10
569.6565839269
 20
-143.0722066626
 10
573.3951276858
 20
-142.6450308378
 10
577.236715477
 20
-142.4872986097
 10
581.1725115255
 20
-142.5993727674
 10
585.1934633742
 20
-142.9809955369
 10
589.2903227051
 20
-143.6312891734
 10
593.4536666103
 20
-144.5487579809
 10
597.6739192655
 20
-145.7312917516
 10
601.9413739544
 20
-147.17617062
 10
602.744221115
 20
-147.4753664734
  0
LWPOLYLINE
  5
107
330
1F
100
AcDbEntity
  8
0
  6
Continuous
 62
     7
370
    25
100
AcDbPolyline
 90
       51
 70
   128
 43
0.0
 10
616.7109752797
 20
-154.0238786262
 10
619.2857543196
 20
-155.5037907717
 10
623.6406125424
 20
-158.1987742245
 10
627.9829485723
 20
-161.1274271657
 10
632.3027748972
 20
-164.2830135998
 10
636.590155778
 20
-167.6582755768
 10
640.8352301015
 20
-171.2454498861
 10
645.0282340605
 20
-175.0362859117
 10
649.1595236116
 20
-179.0220646093
 10
653.2195966565
 20
-183.1936185602
 10
657.1991148971
 20
-187.5413530567
 10
661.0889253138
 20
-192.0552681699
 10
664.8800812181
 20
-196.7249817507
 10
668.5638628299
 20
-201.539753308
 10
672.1317973335
 20
-206.488508713
 10
675.5756783651
 20
-211.5598656697
 10
678.887584888
 20
-216.7421598945
 10
682.0598994111
 20
-222.0234719448
 10
685.0853255093
 20
-227.3916546334
 10
687.9569046056
 20
-232.8343609683
 10
690.6680319762
 20
-238.3390725504
 10
693.2124719411
 20
-243.8931283666
 10
695.5843722069
 20
-249.4837539107
 10
697.7782773271
 20
-255.0980905647
 10
699.7891412494
 20
-260.7232251745
 10
701.6123389225
 20
-266.34621975
 10
703.2436769333
 20
-271.9541412237
 10
704.679403152
 20
-277.5340911964
 10
705.9162153624
 20
-283.0732356044
 10
706.9512688568
 20
-288.5588342381
 10
707.7821829789
 20
-293.9782700447
 10
708.4070465996
 20
-299.3190781483
 10
708.8244225126
 20
-304.568974519
 10
709.0333507399
 20
-309.7158842271
 10
709.0333507399
 20
-314.7479692152
 10
708.8244225126
 20
-319.6536555266
 10
708.4070465996
 20
-324.4216599256
 10
707.7821829789
 20
-329.0410158492
 10
706.9512688568
 20
-333.5010986309
 10
705.9162153624
 20
-337.7916499372
 10
704.679403152
 20
-341.9028013627
 10
703.2436769333
 20
-345.8250971275
 10
701.6123389225
 20
-349.5495158254
 10
699.7891412494
 20
-353.0674911742
 10
697.7782773271
 20
-356.3709317178
 10
695.5843722069
 20
-359.4522394372
 10
693.2124719411
 20
-362.3043272258
 10
690.6680319762
 20
-364.9206351903
 10
687.9569046056
 20
-367.2951457385
 10
685.0853255093
 20
-369.4223974201
 10
683.4054367902
 20
-370.5063615182
  0
SPLINE
  5
108
330
1F
100
AcDbEntity
  8
0
  6
Continuous
 62
     7
370
    25
100
AcDbSpline
210
0.0
220
0.0
230
1.0
 70
     8
 71
     3
 72
    12
 73
     8
 74
     0
 42
0.00000001
 43
0.00000001
 40
0.0
 40
0.0
 40
0.0
 40
0.0
 40
0.2136646489628199
 40
0.4273432067876266
 40
0.6406709646744585
 40
0.853788399792028
 40
1.0
 40
1.0
 40
1.0
 40
1.0
 10
609.7639330407483
 20
-163.6167926463589
 30
0.0
 10
608.9771118602386
 20
-163.5509296485013
 30
0.0
 10
607.4034182797625
 20
-163.4191993653228
 30
0.0
 10
605.2937036004845
 20
-162.6933559039411
 30
0.0
 10
603.7122525588594
 20
-161.6831224073671
 30
0.0
 10
602.8033982071495
 20
-160.5890385699973
 30
0.0
 10
602.798398374991
 20
-159.8664580794335
 30
0.0
 10
602.7963639347182
 20
-159.5724388396337
 30
0.0
  0
SPLINE
  5
109
330
1F
100
AcDbEntity
  8
0
  6
Continuous
 62
     7
370
    25
100
AcDbSpline
210
0.0
220
0.0
230
1.0
 70
     8
 71
     3
 72
    13
 73
     9
 74
     0
 42
0.00000001
 43
0.00000001
 40
0.0
 40
0.0
 40
0.0
 40
0.0
 40
0.0002746909403297
 40
0.2159764856898518
 40
0.4315788850050437
 40
0.6469904821268567
 40
0.862475249959877
 40
1.0
 40
1.0
 40
1.0
 40
1.0
 10
616.710473537675
 20
-159.7250640626858
 30
0.0
 10
616.7106407608168
 20
-159.7256431854115
 30
0.0
 10
616.8421204027184
 20
-160.180979975688
 30
0.0
 10
616.381044200459
 20
-161.1159077170752
 30
0.0
 10
615.2964228295815
 20
-162.3147767115072
 30
0.0
 10
613.4886747003377
 20
-163.1863399348673
 30
0.0
 10
611.5466862095307
 20
-163.6022340853116
 30
0.0
 10
610.2637404955118
 20
-163.6127110508416
 30
0.0
 10
609.7639330407483
 20
-163.6167926463589
 30
0.0
  0
LWPOLYLINE
  5
10A
330
1F
100
AcDbEntity
  8
0
  6
Continuous
 62
     7
370
    25
100
AcDbPolyline
 90
       31
 70
   128
 43
0.0
 10
604.7612278114
 20
-150.7261716096
 10
603.8402813041
 20
-150.0696371753
 10
603.1759122942
 20
-149.316913114
 10
602.7971568955
 20
-148.5008970791
 10
602.7205685364
 20
-147.6572528871
 10
602.9494944957
 20
-146.8228518375
 10
603.4739296104
 20
-146.0341612599
 10
604.2709535495
 20
-145.3256507172
 10
605.3057325424
 20
-144.7282855199
 10
606.5330417815
 20
-144.2681733936
 10
607.899241964
 20
-143.9654234461
 10
609.344623586
 20
-143.8332673028
 10
610.806016535
 20
-143.8774808214
 10
612.2195509265
 20
-144.096131659
 10
613.5234485248
 20
-144.4796637247
 10
614.660722748
 20
-145.0113148268
 10
615.5816692553
 20
-145.6678492612
 10
616.2460382652
 20
-146.4205733225
 10
616.6247936639
 20
-147.2365893573
 10
616.701382023
 20
-148.0802335493
 10
616.4724560637
 20
-148.9146345989
 10
615.948020949
 20
-149.7033251765
 10
615.1509970099
 20
-150.4118357192
 10
614.1162180171
 20
-151.0092009165
 10
612.8889087779
 20
-151.4693130428
 10
611.5227085954
 20
-151.7720629903
 10
610.0773269734
 20
-151.9042191336
 10
608.6159340244
 20
-151.860005615
 10
607.2023996329
 20
-151.6413547774
 10
605.8985020346
 20
-151.2578227117
 10
604.7612278114
 20
-150.7261716096
  0
LWPOLYLINE
  5
10B
330
1F
100
AcDbEntity
  8
0
  6
Continuous
 62
     7
370
    25
100
AcDbPolyline
 90
       26
 70
   128
 43
0.0
 10
606.1754413738
 20
-149.9097634978
 10
605.4072651447
 20
-149.3380599895
 10
604.9095068513
 20
-148.6740339047
 10
604.7134424779
 20
-147.9594084444
 10
604.83139147
 20
-147.2390861545
 10
605.2559426588
 20
-146.5583275337
 10
605.9604199316
 20
-145.9599071497
 10
606.9005583905
 20
-145.481425956
 10
608.0172856785
 20
-145.1529486859
 10
609.2404337131
 20
-144.9951147743
 10
610.4931476049
 20
-145.0178415062
 10
611.6967147329
 20
-145.2197008776
 10
612.775510548
 20
-145.5880093218
 10
613.6617503416
 20
-146.0996246646
 10
614.2997484081
 20
-146.7224002325
 10
614.6494169827
 20
-147.4172047461
 10
614.6887851027
 20
-148.1403810826
 10
614.4153791245
 20
-148.8464894131
 10
613.8463781511
 20
-149.4911623542
 10
613.0175346063
 20
-150.0338927342
 10
611.9809277784
 20
-150.4405788072
 10
610.8016914867
 20
-150.6856669916
 10
609.5539214843
 20
-150.7537574954
 10
608.3160197495
 20
-150.6405719419
 10
607.165768201
 20
-150.3532221955
 10
606.1754413738
 20
-149.9097634978
  0
LWPOLYLINE
  5
10C
330
1F
100
AcDbEntity
  8
0
  6
Continuous
 62
     1
370
    25
100
AcDbPolyline
 90
       67
 70
   128
 43
0.0
 10
469.6589341709
 20
-196.0118902504
 10
471.6239157445
 20
-194.9443471306
 10
474.8921964785
 20
-193.4437896626
 10
478.2973565048
 20
-192.2070945836
 10
481.8315638461
 20
-191.237106332
 10
485.4866897125
 20
-190.5360559119
 10
489.2543271971
 20
-190.1055557616
 10
493.1258106132
 20
-189.9465960453
 10
497.0922354247
 20
-190.0595423755
 10
501.1444787275
 20
-190.444134972
 10
505.2732202321
 20
-191.0994892594
 10
509.4689637008
 20
-192.024097902
 10
513.7220587892
 20
-193.2158342701
 10
518.0227232422
 20
-194.671957332
 10
522.3610653937
 20
-196.389117958
 10
526.7271069179
 20
-198.3633666236
 10
531.1108057793
 20
-200.5901624936
 10
535.50207933
 20
-203.0643838662
 10
539.8908275002
 20
-205.7803399528
 10
544.2669560283
 20
-208.7317839676
 10
548.6203996787
 20
-211.9119274945
 10
552.9411453913
 20
-215.3134561017
 10
557.2192553125
 20
-218.9285461643
 10
561.4448896526
 20
-222.7488828594
 10
565.6083293169
 20
-226.7656792901
 10
569.699998261
 20
-230.9696966959
 10
573.7104855151
 20
-235.351265702
 10
577.63056683
 20
-239.9003085594
 10
581.4512258931
 20
-244.6063623236
 10
585.1636750661
 20
-249.4586029203
 10
588.7593755969
 20
-254.4458700405
 10
592.2300572591
 20
-259.5566928101
 10
595.5677373737
 20
-264.7793161729
 10
598.7647391693
 20
-270.1017279278
 10
601.8137094395
 20
-275.5116863572
 10
604.7076354549
 20
-280.9967483834
 10
607.4398610929
 20
-286.5442981879
 10
610.0041021471
 20
-292.1415762284
 10
612.3944607807
 20
-297.7757085861
 10
614.6054390924
 20
-303.4337365759
 10
616.6319517613
 20
-309.1026465523
 10
618.4693377431
 20
-314.7693998405
 10
620.1133709913
 20
-320.4209627264
 10
621.5602701767
 20
-326.0443364343
 10
622.8067073849
 20
-331.6265870245
 10
623.8498157702
 20
-337.1548751416
 10
624.6871961501
 20
-342.616485546
 10
625.3169225227
 20
-347.9988563585
 10
625.7375464973
 20
-353.289607954
 10
625.9481006252
 20
-358.4765714341
 10
625.9481006252
 20
-363.5478166167
 10
625.7375464973
 20
-368.4916794752
 10
625.3169225227
 20
-373.2967889668
 10
624.6871961501
 20
-377.9520931856
 10
623.8498157702
 20
-382.4468847826
 10
622.8067073849
 20
-386.7708255933
 10
621.5602701767
 20
-390.9139704152
 10
620.1133709913
 20
-394.8667898823
 10
618.4693377431
 20
-398.6201923834
 10
616.6319517613
 20
-402.1655449722
 10
614.6054390924
 20
-405.4946932244
 10
612.3944607807
 20
-408.5999799921
 10
610.0041021471
 20
-411.4742630164
 10
607.4398610929
 20
-414.1109313542
 10
604.7076354549
 20
-416.5039205837
 10
601.8137094395
 20
-418.6477267532
 10
599.1492535262
 20
-420.3180586706
  0
LWPOLYLINE
  5
10D
330
1F
100
AcDbEntity
  8
0
  6
Continuous
 62
     1
370
    25
100
AcDbPolyline
 90
       67
 70
   128
 43
0.0
 10
487.3370346748
 20
-185.8065400532
 10
489.3015852741
 20
-184.7392457328
 10
492.5698660081
 20
-183.2386882648
 10
495.9750260344
 20
-182.0019931858
 10
499.5092333758
 20
-181.0320049342
 10
503.1643592421
 20
-180.3309545141
 10
506.9319967268
 20
-179.9004543638
 10
510.8034801428
 20
-179.7414946475
 10
514.7699049544
 20
-179.8544409777
 10
518.8221482572
 20
-180.2390335742
 10
522.9508897618
 20
-180.8943878616
 10
527.1466332305
 20
-181.8189965042
 10
531.3997283188
 20
-183.0107328723
 10
535.7003927718
 20
-184.4668559343
 10
540.0387349234
 20
-186.1840165603
 10
544.4047764476
 20
-188.1582652259
 10
548.788475309
 20
-190.3850610959
 10
553.1797488597
 20
-192.8592824684
 10
557.5684970298
 20
-195.5752385551
 10
561.944625558
 20
-198.5266825698
 10
566.2980692083
 20
-201.7068260967
 10
570.6188149209
 20
-205.1083547039
 10
574.8969248422
 20
-208.7234447666
 10
579.1225591822
 20
-212.5437814616
 10
583.2859988466
 20
-216.5605778923
 10
587.3776677907
 20
-220.7645952981
 10
591.3881550448
 20
-225.1461643042
 10
595.3082363597
 20
-229.6952071616
 10
599.1288954228
 20
-234.4012609259
 10
602.8413445958
 20
-239.2535015225
 10
606.4370451266
 20
-244.2407686427
 10
609.9077267888
 20
-249.3515914123
 10
613.2454069033
 20
-254.5742147751
 10
616.442408699
 20
-259.89662653
 10
619.4913789691
 20
-265.3065849594
 10
622.3853049845
 20
-270.7916469856
 10
625.1175306226
 20
-276.3391967901
 10
627.6817716767
 20
-281.9364748306
 10
630.0721303104
 20
-287.5706071883
 10
632.2831086221
 20
-293.2286351781
 10
634.3096212909
 20
-298.8975451545
 10
636.1470072728
 20
-304.5642984427
 10
637.791040521
 20
-310.2158613286
 10
639.2379397064
 20
-315.8392350365
 10
640.4843769145
 20
-321.4214856267
 10
641.5274852999
 20
-326.9497737439
 10
642.3648656798
 20
-332.4113841482
 10
642.9945920524
 20
-337.7937549608
 10
643.415216027
 20
-343.0845065562
 10
643.6257701549
 20
-348.2714700363
 10
643.6257701549
 20
-353.3427152189
 10
643.415216027
 20
-358.2865780774
 10
642.9945920524
 20
-363.091687569
 10
642.3648656798
 20
-367.7469917878
 10
641.5274852999
 20
-372.2417833848
 10
640.4843769145
 20
-376.5657241955
 10
639.2379397064
 20
-380.7088690174
 10
637.791040521
 20
-384.6616884845
 10
636.1470072728
 20
-388.4150909856
 10
634.3096212909
 20
-391.9604435745
 10
632.2831086221
 20
-395.2895918266
 10
630.0721303104
 20
-398.3948785944
 10
627.6817716767
 20
-401.2691616186
 10
625.1175306226
 20
-403.9058299564
 10
622.3853049845
 20
-406.2988191859
 10
619.4913789691
 20
-408.4426253554
 10
616.8265105512
 20
-410.1131954098
  0
ENDSEC
  0
SECTION
  2
OBJECTS
  0
DICTIONARY
  5
C
330
0
100
AcDbDictionary
281
     1
  3
ACAD_GROUP
350
D
  3
ACAD_LAYOUT
350
1A
  3
ACAD_MLINESTYLE
350
17
  3
ACAD_PLOTSETTINGS
350
19
  3
ACAD_PLOTSTYLENAME
350
E
  3
ACAD_SCALELIST
350
47
  3
DWGPROPS
350
10E
  0
DICTIONARY
  5
D
102
{ACAD_REACTORS
330
C
102
}
330
C
100
AcDbDictionary
281
     1
  0
DICTIONARY
  5
1A
102
{ACAD_REACTORS
330
C
102
}
330
C
100
AcDbDictionary
281
     1
  3
Layout1
350
1E
  3
Layout2
350
26
  3
Model
350
22
  0
DICTIONARY
  5
17
102
{ACAD_REACTORS
330
C
102
}
330
C
100
AcDbDictionary
281
     1
  3
Standard
350
18
  0
DICTIONARY
  5
19
102
{ACAD_REACTORS
330
C
102
}
330
C
100
AcDbDictionary
281
     1
  0
ACDBDICTIONARYWDFLT
  5
E
102
{ACAD_REACTORS
330
C
102
}
330
C
100
AcDbDictionary
281
     1
  3
Normal
350
F
100
AcDbDictionaryWithDefault
340
F
  0
DICTIONARY
  5
47
102
{ACAD_REACTORS
330
C
102
}
330
C
100
AcDbDictionary
281
     1
  3
A0
350
48
  3
A1
350
49
  3
A2
350
4A
  3
A3
350
4B
  3
A4
350
4C
  3
A5
350
4D
  3
A6
350
4E
  3
A7
350
4F
  3
A8
350
50
  3
A9
350
51
  3
B0
350
52
  3
B1
350
53
  3
B2
350
54
  3
B3
350
55
  3
B4
350
56
  3
B5
350
57
  3
B6
350
58
  3
B7
350
59
  3
B8
350
5A
  3
B9
350
5B
  3
C0
350
5C
  3
C1
350
5D
  3
C2
350
5E
  3
C3
350
5F
  3
C4
350
60
  3
C5
350
61
  3
C6
350
62
  3
C7
350
63
  3
C8
350
64
  3
C9
350
65
  3
D0
350
66
  3
D1
350
67
  3
D2
350
68
  0
XRECORD
  5
10E
102
{ACAD_REACTORS
330
C
102
}
330
C
100
AcDbXrecord
280
     1
  1
DWGPROPS COOKIE
  2

  3

  4

  6

  7

  8
b.kav
  9

300
=
301
=
302
=
303
=
304
=
305
=
306
=
307
=
308
=
309
=
 40
0.0
 41
2460616.541892488
 42
2460616.541892558
  1

 90
        0
  0
LAYOUT
  5
1E
102
{ACAD_REACTORS
330
1A
102
}
330
1A
100
AcDbPlotSettings
  1

  2
none_device
  4

  6

 40
0.0
 41
0.0
 42
0.0
 43
0.0
 44
0.0
 45
0.0
 46
0.0
 47
0.0
 48
0.0
 49
0.0
140
0.0
141
0.0
142
1.0
143
1.0
 70
   688
 72
     1
 73
     0
 74
     5
  7

 75
    16
147
1.0
148
0.0
149
0.0
100
AcDbLayout
  1
Layout1
 70
     1
 71
     1
 10
0.0
 20
0.0
 11
420.0
 21
297.0
 12
0.0
 22
0.0
 32
0.0
 14
1.0000000000E+20
 24
1.0000000000E+20
 34
1.0000000000E+20
 15
-1.0000000000E+20
 25
-1.0000000000E+20
 35
-1.0000000000E+20
146
0.0
 13
0.0
 23
0.0
 33
0.0
 16
1.0
 26
0.0
 36
0.0
 17
0.0
 27
1.0
 37
0.0
 76
     0
330
1B
  0
LAYOUT
  5
26
102
{ACAD_REACTORS
330
1A
102
}
330
1A
100
AcDbPlotSettings
  1

  2
none_device
  4

  6

 40
0.0
 41
0.0
 42
0.0
 43
0.0
 44
0.0
 45
0.0
 46
0.0
 47
0.0
 48
0.0
 49
0.0
140
0.0
141
0.0
142
1.0
143
1.0
 70
   688
 72
     1
 73
     0
 74
     5
  7

 75
    16
147
1.0
148
0.0
149
0.0
100
AcDbLayout
  1
Layout2
 70
     1
 71
     2
 10
0.0
 20
0.0
 11
0.0
 21
0.0
 12
0.0
 22
0.0
 32
0.0
 14
0.0
 24
0.0
 34
0.0
 15
0.0
 25
0.0
 35
0.0
146
0.0
 13
0.0
 23
0.0
 33
0.0
 16
1.0
 26
0.0
 36
0.0
 17
0.0
 27
1.0
 37
0.0
 76
     0
330
23
  0
LAYOUT
  5
22
102
{ACAD_REACTORS
330
1A
102
}
330
1A
100
AcDbPlotSettings
  1

  2
none_device
  4
Letter_(8.50_x_11.00_Inches)
  6

 40
6.35
 41
6.35
 42
6.35000508
 43
6.35000508
 44
215.9
 45
279.4
 46
0.0
 47
0.0
 48
0.0
 49
0.0
140
0.0
141
0.0
142
1.0
143
1.0
 70
  1712
 72
     1
 73
     0
 74
     0
  7

 75
     0
147
1.0
148
0.0
149
0.0
100
AcDbLayout
  1
Model
 70
     1
 71
     0
 10
0.0
 20
0.0
 11
279.4
 21
215.9
 12
0.0
 22
0.0
 32
0.0
 14
0.0
 24
0.0
 34
0.0
 15
279.4
 25
215.9
 35
0.0
146
0.0
 13
0.0
 23
0.0
 33
0.0
 16
1.0
 26
0.0
 36
0.0
 17
0.0
 27
1.0
 37
0.0
 76
     0
330
1F
331
29
  0
MLINESTYLE
  5
18
102
{ACAD_REACTORS
330
17
102
}
330
17
100
AcDbMlineStyle
  2
Standard
 70
     0
  3

 62
   256
 51
90.0
 52
90.0
 71
     2
 49
0.5
 62
   256
  6
BYLAYER
 49
-0.5
 62
   256
  6
BYLAYER
  0
ACDBPLACEHOLDER
  5
F
102
{ACAD_REACTORS
330
E
102
}
330
E
  0
SCALE
  5
48
102
{ACAD_REACTORS
330
47
102
}
330
47
100
AcDbScale
 70
     0
300
1:1
140
1.0
141
1.0
290
     1
  0
SCALE
  5
49
102
{ACAD_REACTORS
330
47
102
}
330
47
100
AcDbScale
 70
     0
300
1:2
140
1.0
141
2.0
290
     0
  0
SCALE
  5
4A
102
{ACAD_REACTORS
330
47
102
}
330
47
100
AcDbScale
 70
     0
300
1:4
140
1.0
141
4.0
290
     0
  0
SCALE
  5
4B
102
{ACAD_REACTORS
330
47
102
}
330
47
100
AcDbScale
 70
     0
300
1:5
140
1.0
141
5.0
290
     0
  0
SCALE
  5
4C
102
{ACAD_REACTORS
330
47
102
}
330
47
100
AcDbScale
 70
     0
300
1:8
140
1.0
141
8.0
290
     0
  0
SCALE
  5
4D
102
{ACAD_REACTORS
330
47
102
}
330
47
100
AcDbScale
 70
     0
300
1:10
140
1.0
141
10.0
290
     0
  0
SCALE
  5
4E
102
{ACAD_REACTORS
330
47
102
}
330
47
100
AcDbScale
 70
     0
300
1:16
140
1.0
141
16.0
290
     0
  0
SCALE
  5
4F
102
{ACAD_REACTORS
330
47
102
}
330
47
100
AcDbScale
 70
     0
300
1:20
140
1.0
141
20.0
290
     0
  0
SCALE
  5
50
102
{ACAD_REACTORS
330
47
102
}
330
47
100
AcDbScale
 70
     0
300
1:30
140
1.0
141
30.0
290
     0
  0
SCALE
  5
51
102
{ACAD_REACTORS
330
47
102
}
330
47
100
AcDbScale
 70
     0
300
1:40
140
1.0
141
40.0
290
     0
  0
SCALE
  5
52
102
{ACAD_REACTORS
330
47
102
}
330
47
100
AcDbScale
 70
     0
300
1:50
140
1.0
141
50.0
290
     0
  0
SCALE
  5
53
102
{ACAD_REACTORS
330
47
102
}
330
47
100
AcDbScale
 70
     0
300
1:100
140
1.0
141
100.0
290
     0
  0
SCALE
  5
54
102
{ACAD_REACTORS
330
47
102
}
330
47
100
AcDbScale
 70
     0
300
2:1
140
2.0
141
1.0
290
     0
  0
SCALE
  5
55
102
{ACAD_REACTORS
330
47
102
}
330
47
100
AcDbScale
 70
     0
300
4:1
140
4.0
141
1.0
290
     0
  0
SCALE
  5
56
102
{ACAD_REACTORS
330
47
102
}
330
47
100
AcDbScale
 70
     0
300
8:1
140
8.0
141
1.0
290
     0
  0
SCALE
  5
57
102
{ACAD_REACTORS
330
47
102
}
330
47
100
AcDbScale
 70
     0
300
10:1
140
10.0
141
1.0
290
     0
  0
SCALE
  5
58
102
{ACAD_REACTORS
330
47
102
}
330
47
100
AcDbScale
 70
     0
300
100:1
140
100.0
141
1.0
290
     0
  0
SCALE
  5
59
102
{ACAD_REACTORS
330
47
102
}
330
47
100
AcDbScale
 70
     0
300
1/128" = 1'-0"
140
0.0078125
141
12.0
290
     0
  0
SCALE
  5
5A
102
{ACAD_REACTORS
330
47
102
}
330
47
100
AcDbScale
 70
     0
300
1/64" = 1'-0"
140
0.015625
141
12.0
290
     0
  0
SCALE
  5
5B
102
{ACAD_REACTORS
330
47
102
}
330
47
100
AcDbScale
 70
     0
300
1/32" = 1'-0"
140
0.03125
141
12.0
290
     0
  0
SCALE
  5
5C
102
{ACAD_REACTORS
330
47
102
}
330
47
100
AcDbScale
 70
     0
300
1/16" = 1'-0"
140
0.0625
141
12.0
290
     0
  0
SCALE
  5
5D
102
{ACAD_REACTORS
330
47
102
}
330
47
100
AcDbScale
 70
     0
300
3/32" = 1'-0"
140
0.09375
141
12.0
290
     0
  0
SCALE
  5
5E
102
{ACAD_REACTORS
330
47
102
}
330
47
100
AcDbScale
 70
     0
300
1/8" = 1'-0"
140
0.125
141
12.0
290
     0
  0
SCALE
  5
5F
102
{ACAD_REACTORS
330
47
102
}
330
47
100
AcDbScale
 70
     0
300
3/16" = 1'-0"
140
0.1875
141
12.0
290
     0
  0
SCALE
  5
60
102
{ACAD_REACTORS
330
47
102
}
330
47
100
AcDbScale
 70
     0
300
1/4" = 1'-0"
140
0.25
141
12.0
290
     0
  0
SCALE
  5
61
102
{ACAD_REACTORS
330
47
102
}
330
47
100
AcDbScale
 70
     0
300
3/8" = 1'-0"
140
0.375
141
12.0
290
     0
  0
SCALE
  5
62
102
{ACAD_REACTORS
330
47
102
}
330
47
100
AcDbScale
 70
     0
300
1/2" = 1'-0"
140
0.5
141
12.0
290
     0
  0
SCALE
  5
63
102
{ACAD_REACTORS
330
47
102
}
330
47
100
AcDbScale
 70
     0
300
3/4" = 1'-0"
140
0.75
141
12.0
290
     0
  0
SCALE
  5
64
102
{ACAD_REACTORS
330
47
102
}
330
47
100
AcDbScale
 70
     0
300
1" = 1'-0"
140
1.0
141
12.0
290
     0
  0
SCALE
  5
65
102
{ACAD_REACTORS
330
47
102
}
330
47
100
AcDbScale
 70
     0
300
1-1/2" = 1'-0"
140
1.5
141
12.0
290
     0
  0
SCALE
  5
66
102
{ACAD_REACTORS
330
47
102
}
330
47
100
AcDbScale
 70
     0
300
3" = 1'-0"
140
3.0
141
12.0
290
     0
  0
SCALE
  5
67
102
{ACAD_REACTORS
330
47
102
}
330
47
100
AcDbScale
 70
     0
300
6" = 1'-0"
140
6.0
141
12.0
290
     0
  0
SCALE
  5
68
102
{ACAD_REACTORS
330
47
102
}
330
47
100
AcDbScale
 70
     0
300
1'-0" = 1'-0"
140
12.0
141
12.0
290
     0
  0
ENDSEC
  0
EOF
